Luka Bloom - Gone to Pablo

(/) Slide Up  (\) Slide Down  (h) Hammer On  (p) Pull Off  (b) Bend (r) Release (v) Vibrato


Tuning DADGAD

Assume all the other strings are played open the whole time (not written here so you can see the changes more easily)

Verse
E|-------------------
B|--9---7--10--5-----
G|--11--9--12--6--4--
D|-------------------
A|----------------5--
E|----------------5--

Chorus

E|---------------------------------
B|--------9h10p9--------------------
G|--5--4--11-----last time--9h11p9--
D|--7--5----------------------------
A|--7--5----------------------------
E|--7--5-------------------11-------

Ending (not quite right)

E|--------------------
B|--------------------
G|--9h11p9--7-----4---
D|--------------------
A|----------------5---
E|--11------9-----5---
http://www.guitartabcreator.com
Guitar Tab Creator is intended to store guitar tab created through the tool. It currently does not support in-line text editing. Any text you place in here will be lost. If you need to comment on your tab, please use the "Tab Notes" section located below.