Beneath the Floorboard

(/) Slide Up  (\) Slide Down  (h) Hammer On  (p) Pull Off  (b) Bend (r) Release (v) Vibrato

Intro x2 Verse
E|-----------------------------------------|----------------------------------------
B|-----------------------------------------|----------------------------------------
G|-------------11-12-9---------------------|----------------------------------------
D|---------------------------------11-12-9-|------|------------10--------------10---
A|-0-12-11-9-9---------0-12-11-9-9---------|-11\0-|-11h12p11-9----9-11h12p11-9----9-
E|-----------------------------------------|----------------------------------------


E|--------------------------------------|-
B|--------------------------------------|-
G|--------------------------------------|-
D|------------10--------------10\3-|----|-
A|-11h12p11-9----9-11h12p11-9------|x12-|-
E|--------------------------------------|-

Chorus x3
E|--------------------------------------------|-
B|--------------------------------------------|-
G|--------------------------------------------|-
D|-11-12-12-12-12-9-10-11-11-11-7-9-9-9-9-7-9-|-
A|-9--10-10-10-10-7-9--9--9--9--5-7-7-7-7-5-9-|-
D|------------------------------------------9-|-
http://www.guitartabcreator.com
Guitar Tab Creator is intended to store guitar tab created through the tool. It currently does not support in-line text editing. Any text you place in here will be lost. If you need to comment on your tab, please use the "Tab Notes" section located below.