HORSEPOWER

(/) Slide Up  (\) Slide Down  (h) Hammer On  (p) Pull Off  (b) Bend (r) Release (v) Vibrato

intro

E|--------x--x--x--x----------------------x--x--x--x--------------
B|--------x--x--x--x----------------------x--x--x--x--------------
G|--------x--x--x--x--9--7----------------x--x--x--x--------------
D|--7--7--x--x--x--x--9--7--10----10--10--x--x--x--x--13--12--10--
A|--7--7--x--x--x--x--7--5--10----10--10--x--x--x--x--13--12--10--
E|--5--5--x--x--x--x--------8-----8---8---x--x--x--x--11--10--8---

verse

E|--------x--x--x--x-----x----------------x--x--x--x----------------
B|--------x--x--x--x-----x----------------x--x--x--x----------------
G|--------x--x--x--x-----x--------10--10--x--x--x--x--10--10--7-10--
D|--7--7--x--x--x--x--7--x--7--7--10--10--x--x--x--x--10--10--7-10--
A|--7--7--x--x--x--x--7--x--7--7--8---8---x--x--x--x--8---8---5/8---
E|--5--5--x--x--x--x--5--x--5--5----------x--x--x--x----------------

chorus

E|--------x--x--x--x--------------------------
B|--------x--x--x--x--------------------------
G|--------x--x--x--x--------------------------
D|--7--7--x--x--x--x--7--7--7--7-10----10-13--
A|--7--7--x--x--x--x--7--7--7--7-10----10-13--
E|--5--5--x--x--x--x--5--5--5--5/8-----8-/11--

end chorus 'arhhh' bit

E|------------------
B|------------------
G|------------------
D|--14--13--12--10--
A|--14--13--12--10--
E|--12--11--10--8---

bridge 'xtrails are not allowed'

E|-------------------------------------------------------------------
B|-------------------------------------------------------------------
G|-------------------------------------------------------------------
D|--7--7--x--x--7--7--7--x--x--7--7--7--x--x--7--7--7--7-8--8--8--8--
A|--7--7--x--x--7--7--7--x--x--7--7--7--x--x--7--7--7--7-8--8--8--8--
E|--5--5--x--x--5--5--5--x--x--5--5--5--x--x--5--5--5--5/6--6--6--6--

bridge two no vocals

E|--------------------------------------------------------------------------------
B|--------------------------------------------------------------------------------
G|--------------------------9--7--------------------------------------------------
D|--7--7--7--7--x--x--x--x--9--7--10------10--10--10--10--x--x--x--x--13--12--10--
A|--7--7--7--7--x--x--x--x--7--5--10------10--10--10--10--x--x--x--x--13--12--10--
E|--5--5--5--5--x--x--x--x--------8-------8---8---8---8---x--x--x--x--11--10--8---

intro x 2
verse guitar only x 1
verse x 3
chorus x 3
end chorus x 1
verse bass only x 1
verse x 3
chorus x 3
end chorus x 1
bridge x 4
bridge two x 2
verse drums only x 1
verse x 3
chorus x 3
end chorus x 1
verse outro fade out
http://www.guitartabcreator.com
Guitar Tab Creator is intended to store guitar tab created through the tool. It currently does not support in-line text editing. Any text you place in here will be lost. If you need to comment on your tab, please use the "Tab Notes" section located below.