HOLIDAY-GUITAR TAB

(/) Slide Up  (\) Slide Down  (h) Hammer On  (p) Pull Off  (b) Bend (r) Release (*)PALM MUTE

INTRO ONE
E|--------------------------
B|--------------------------
G|--------------------------
D|--------------------------
A|--------------------------
E|--3p1--1--3p1--1--3p1--1--
**********************
INTRO TWO
E|--------------------------------------
B|--------------------------------------
G|--------------------------------------
D|--------------------------------------
A|--------------------------------------
E|--3p1--1--3p1--1--3p1--1--4--4--4--4--
*******************
VERSE
E|--------------------------------------
B|--------------------------------------
G|--------------------3--3--3--6--6--6--
D|--3--3--3--6--6--6--3--3--3--6--6--6--
A|--3--3--3--6--6--6--1--1--1--4--4--4--
E|--1--1--1--4--4--4--------------------
**** **** **** ****
VERSE BRIDGE ONE
E|---------------------------------------
B|---------------------------------------
G|--6--6--6-7--6--6--6-7--6--6--6--6--6--
D|--6--6--6-7--6--6--6-7--6--6--6--6--6--
A|--4--4--4/5--4--4--4/5--4--4--4--4--4--
E|---------------------------------------

VERSE BRIDGE TWO
E|--------------------------------------------------------------------------------
B|--------------------------------------------------------------------------------
G|--6--6--6-7--6--6--6-7--6--6--6-7--6--6--6-7--6--6--6-7--6--6-7--6--6--6--6--6--
D|--6--6--6-7--6--6--6-7--6--6--6-7--6--6--6-7--6--6--6-7--6--6-7--6--6--6--6--6--
A|--4--4--4/5--4--4--4/5--4--4--4/5--4--4--4/5--4--4--4/5--4--4/5--4--4--4--4--4--
E|--------------------------------------------------------------------------------

CHORUS
E|-------------------------------------------------------------------------
B|-------------------------------------------------------------------------
G|--6--6--------5--5--6--6--6--6--6--5--6----6--6--------5--5--5--5--5-----
D|--6--6--6--6--5--5--6--6--6--6--6--5--6----6--6--6--6--5--5--5--5--5--7--
A|--4--4--6--6--3--3--4--4--4--4--4--3--4----4--4--6--6--3--3--3--3--3--7--
E|--------4--4-------------------------------------4--4-----------------5--

E|----------------------------------------------------------------------
B|----------------------------------------------------------------------
G|--6--6--------5--5--6--6--6--6--6--5--6----6--6--------5--5--5--5--5--
D|--6--6--6--6--5--5--6--6--6--6--6--5--6----6--6--6--6--5--5--5--5--5--
A|--4--4--6--6--3--3--4--4--4--4--4--3--4----4--4--6--6--3--3--3--3--3--
E|--------4--4-------------------------------------4--4-----------------

BRIDGE ONE
E|----------------------------------------------------------------------------
B|----------------------------------------------------------------------------
G|----------------------------------------------------------------------------
D|--7----8----7----------7--------------5--------------7----------------------
A|--7----8----7-------7--------------5--------------7--------------5--3h5--3--
E|--5----6----5----5--------5--5--3--------3--3--5--------5--5--3-------------
*************************************************
BRIDGE TWO
E|-----------------------------------------------------------------
B|-----------------------------------------------------------------
G|-----------------------------------------------------------------
D|--7----8----7----7--5--4--7--5--4--4-7----7--5--4--7--5--4--4-7--
A|--7----8----7----7--5--4--7--5--4--4-7----7--5--4--7--5--4--4-7--
E|--5----6----5----5--3--2--5--3--2--2/5----5--3--2--5--3--2--2/5--
**********************************************
E|-----------------------------------------------------
B|-----------------------------------------------------
G|-----------------------------------------------------
D|--7--5--4--7--5--4--4---7----7--5--4--7--5--4--3--2--
A|--7--5--4--7--5--4--4---7----7--5--4--7--5--4--3--2--
E|--5--3--2--5--3--2--2/--5----5--3--2--5--3--2--1--0--

INTRO x 4
INTRO TWO x 4
VERSE x 4
VERSE BRIDGE ONE x 1
VERSE x 4
VERSE BRIDGE TWO x 1
CHORUS x 1
BASS BIT
VERSE x 4
VERSE BRIDGE TWO x 4
CHORUS x 1
BRIDGE ONE x 1
BRIDGE ONE (MINUS THE 1ST THREE CHORDS) x 3
BRIDGE TWO
CHORUS x 1
http://www.guitartabcreator.com
Guitar Tab Creator is intended to store guitar tab created through the tool. It currently does not support in-line text editing. Any text you place in here will be lost. If you need to comment on your tab, please use the "Tab Notes" section located below.