HOLIDAY-BASS TAB

(/) Slide Up  (\) Slide Down  (h) Hammer On  (p) Pull Off  (b) Bend (r) Release (v) Vibrato
intro
E|-----------------------------
B|-----------------------------
G|-----------------------------
D|-----------------------------
A|-----------------------------
E|--3p1--1--3p1--1--3p1--1-----

intro two

E|-------------------------------------------
B|-------------------------------------------
G|-------------------------------------------
D|-------------------------------------------
A|-------------------------------------------
E|--3p1--1--3p1--1--3p1--1----4--4--4--4-----

verse

E|--------------------------------------------------------
B|--------------------------------------------------------
G|--------------------------------------------------------
D|--------------------------------------------------------
A|------------------------------1--1--1--1----4--4--4--4--
E|--1--1--1--1----4--4--4--4------------------------------

verse bridge

E|---------------------------------------
B|---------------------------------------
G|---------------------------------------
D|---------------------------------------
A|--4--4--4/5--4--4--4\5--4--4--4--4--4--
E|---------------------------------------

chorus

E|----------------------------------------------------------------------------
B|----------------------------------------------------------------------------
G|----------------------------------------------------------------------------
D|----------------------------------------------------------------------------
A|--4--4--------3--3--4--4--4--4--4--3--4----4--4--------3--3--3--3--3--------
E|--------4--4-------------------------------------4--4-----------------5-----



E|----------------------------------------------------------------------
B|----------------------------------------------------------------------
G|----------------------------------------------------------------------
D|----------------------------------------------------------------------
A|--4--4--------3--3--4--4--4--4--4--3--4----4--4--------3--3--3--3--3--
E|--------4--4-------------------------------------4--4-----------------

bridge

E|----------------------------------------------------------------------------------
B|----------------------------------------------------------------------------------
G|----------------------------------------------------------------------------------
D|----------------------------------------------------------------------------------
A|----------------------------------------------------------------------------------
E|--5----6----5----5/17----3/15----5/17----3/8----5/17----3/15----5/17----3/8-------



E|--------------------------------------------------------------
B|--------------------------------------------------------------
G|--------------------------------------------------------------
D|--------------------------------------------------------------
A|--------------------------------------------------------------
E|--5/17----3/15----5/17----3/8----5/17----3/15----5/17----3/8--



E|------------------------------------------------------------------------------------------
B|------------------------------------------------------------------------------------------
G|------------------------------------------------------------------------------------------
D|------------------------------------------------------------------------------------------
A|------------------------------------------------------------------------------------------
E|--5----6----5----5--3--2--5--3--2--2/5----5--3--2--5--3--2--2/5----5--3--2--5--3--2--2/5--



E|--------------------------
B|--------------------------
G|--------------------------
D|--------------------------
A|--------------------------
E|--5--3--2--5--3--2--1--0--

intro x 4
intro two x 4
verse x 4
verse bridge x 1
verse x 4
verse bridge x 1
chorus x 1

bass bit (come up wit something funky) i left it blank for you. listen to the song for how long u go for. i think its 4 bars

verse x 4
verse bridge x 2
chorus x 1
bridge x 1
chorus x 1


http://www.guitartabcreator.com
Guitar Tab Creator is intended to store guitar tab created through the tool. It currently does not support in-line text editing. Any text you place in here will be lost. If you need to comment on your tab, please use the "Tab Notes" section located below.