HIPPOCRITE BASS TAB

(/) Slide Up  (\) Slide Down  (h) Hammer On  (p) Pull Off  (b) Bend (r) Release (v) Vibrato
E|--------------------------------------------------------------------------
B|--------------------------------------------------------------------------
G|--------------------------------------------------------------------------
D|--------------------------------------------------------------------------
A|--3--------4----3--------4----3--------4----3--3--3--------------------4--
E|-----3--4----------3--4----------3--4----------------3--3--3--4--4--4-----



E|--------------------------------------
B|--------------------------------------
G|--------------------------------------
D|--------------------------------------
A|--3--3--3--3--------------------------
E|--------------3--3--3--3--4--4--4--4--



E|-------------------------------------------------------------------
B|-------------------------------------------------------------------
G|-------------------------------------------------------------------
D|-------------------------------------------------------------------
A|-3-3-3-3----------------------4-6--3-3-3-3-------------------------
E|---------3-3-3-3-4-4-4-4--4-6--------------3-3-3-3-4-4-4-4-6-4-3-0-



E|---------
B|---------
G|---------
D|---------
A|-3-------
E|----3--4-



E|--------------------------------------------------------------
B|--------------------------------------------------------------
G|--------------------------------------------------------------
D|--------------------------------------------------------------
A|-3-3-0--3-3-0--3-3-0--3/7-7-7-7--3-3-0--3-3-0--3-3-0----------
E|------------------------------------------------------4-4-4-4-



E|--------------------
B|--------------------
G|--------------------
D|--------------------
A|--3----7------------
E|------------4----3--
http://www.guitartabcreator.com
Guitar Tab Creator is intended to store guitar tab created through the tool. It currently does not support in-line text editing. Any text you place in here will be lost. If you need to comment on your tab, please use the "Tab Notes" section located below.