bel viv devoe

(/) Slide Up  (\) Slide Down  (h) Hammer On  (p) Pull Off  (b) Bend (r) Release (v) Vibrato


E|------------------
B|------------------
G|--5--------6------
D|--5--5--6--6------
A|--3--5--6--4------
E|-----3--4---------



E|--------------------------------------
B|--------------------------------------
G|--5--5----5------------------------6--
D|--5--5----5--5--5----5--6--6----6--6--
A|--3--3----3--5--5----5--6--6----6--4--
E|-------------3--3----3--4--4----4-----



E|-----------
B|-----------
G|--5--------
D|--5--5--6--
A|--3--5--6--
E|-----3--4--



E|-----------------------------------------------
B|-----------------------------------------------
G|--5--5--5----5--5--5----5--5--5--5/9--9--9--9--
D|--5--5--5----5--5--5----5--5--5--5-9--9--9--9--
A|--3--3--0----3--3--0----3--3--0--3-7--7--7--7--
E|-----------------------------------------------



E|---------------------------------------------
B|---------------------------------------------
G|--5--5--5----5--5--5----5--5--5--------------
D|--5--5--5----5--5--5----5--5--5--6--6--6--6--
A|--3--3--0----3--3--0----3--3--0--6--6--6--6--
E|---------------------------------4--4--4--4--



E|--------------
B|--------------
G|--5--9--------
D|--5--9--6--5--
A|--3--7--6--5--
E|--------4--3--
http://www.guitartabcreator.com
Guitar Tab Creator is intended to store guitar tab created through the tool. It currently does not support in-line text editing. Any text you place in here will be lost. If you need to comment on your tab, please use the "Tab Notes" section located below.