Time

(/) Slide Up  (\) Slide Down  (h) Hammer On  (p) Pull Off  (b) Bend (r) Release (v) Vibrato

E|------------------------------------------------5---------------------
B|----------------------------------------5--5/7-----7------------------
G|-----4b4--4b4--4b4--4--2--4----------6-------------------4b4--2--4b4--
D|--4--------------------------4b4--4-------------------4---------------
A|----------------------------------------------------------------------
E|----------------------------------------------------------------------



E|--9-----9--9b9--9-------------------------------------------17------------------------
B|-------------------10b10--10--9--9b9-------------14--17b17------17b17--17--17---------
G|-----9--------------------------------9------14--------------------------------16b16--
D|-----------------------------------------16-------------------------------------------
A|--------------------------------------------------------------------------------------
E|--------------------------------------------------------------------------------------



E|--------------------------------------------------
B|--------------------------------------------------
G|--------------------------------------------------
D|--------------------------------------------------
A|--------------------------------------------------
E|--------------------------------------------------



E|-------------------------------------------17b17-----------------------
B|--14b14-------------17-------------14----------------------------------
G|---------16b16--16------16b16--14-----------------16/14--16/14--16b16--
D|---------------------------------------16------------------------------
A|-----------------------------------------------------------------------
E|-----------------------------------------------------------------------



E|--20b20b20--19--16--------------------------------------
B|--------------------17--17------19--19--17--17--17--14--
G|----------------------------16--------------------------
D|--------------------------------------------------------
A|--------------------------------------------------------
E|--------------------------------------------------------



E|-------------------------------------------------------------------------------------------------
B|----------------10--12--10--9--10--9--5--7--9--9-------------------------------------------------
G|------------11------------------------------------11--9--11--11--6--11--6--6b7--6--4--2--4--4b6--
D|--4--7--11---------------------------------------------------------------------------------------
A|-------------------------------------------------------------------------------------------------
E|-------------------------------------------------------------------------------------------------



E|-----------------------
B|-----------------------
G|--2--4--2--1--2--4-----
D|--------------------6--
A|-----------------------
E|-----------------------
http://www.guitartabcreator.com
Guitar Tab Creator is intended to store guitar tab created through the tool. It currently does not support in-line text editing. Any text you place in here will be lost. If you need to comment on your tab, please use the "Tab Notes" section located below.