Random thoughts and ideas...

(/) Slide Up  (\) Slide Down  (h) Hammer On  (p) Pull Off  (b) Bend (r) Release (v) Vibrato

E|--------------------------------------------
B|--15p14--17p14------------------18----------
G|----------------17--16--------------17------
D|----------------------------15----------15--
A|------------------------14------------------
E|--------------------------------------------



E|-------------13h17h21p17p13----------13h17h21p17p13h17h20p17p13h15h18p15p13-
B|----------15----------------15----15----------------------------------------
G|-------14----------------------14-------------------------------------------
D|----15----------------------------------------------------------------------
A|-17-------------------------------------------------------------------------
E|----------------------------------------------------------------------------



E|------------8h12p8---------8h9h12h13p12p9p8-
B|---------10--------10---10------------------
G|-------9--------------9---------------------
D|----10--------------------------------------
A|-12-----------------------------------------
E|--------------------------------------------



E|--8p0--13--16--13--12--16--19--16--13--16--13--12--13--12v--
B|------------------------------------------------------------
G|------------------------------------------------------------
D|------------------------------------------------------------
A|------------------------------------------------------------
E|------------------------------------------------------------



E|-------------------
B|--10--9--10b9--7v--
G|-------------------
D|-------------------
A|-------------------
E|-------------------



E|----------------------------------------------
B|-----------9-10-12-10-9-------------9-10-12---
G|----7-9-10--------------10-9-7-9-10-----------
D|-10-------------------------------------------
A|----------------------------------------------
E|----------------------------------------------



E|--------------------------13--15--16--13h15p13-------------------------------------------------------------------
B|--------------13--15--16------------------------16--15--13--15--16--15--13---------------------------------------
G|--12--13--16----------------------------------------------------------------16--13--12--13--16--17--16--13--12v--
D|-----------------------------------------------------------------------------------------------------------------
A|-----------------------------------------------------------------------------------------------------------------
E|-----------------------------------------------------------------------------------------------------------------
http://www.guitartabcreator.com
Guitar Tab Creator is intended to store guitar tab created through the tool. It currently does not support in-line text editing. Any text you place in here will be lost. If you need to comment on your tab, please use the "Tab Notes" section located below.