Foxey Lady Solo

(/) Slide Up  (\) Slide Down  (h) Hammer On  (p) Pull Off  (b) Bend (r) Release (v) Vibrato


E|----------------------------------------------------------------------------------14----14---14----
B|-----------17b--17br------------------------------------------------------------14---17b--17---14--
G|--16b--14-----------14--9b--9\7-------9--11b--11b--11--11--11p9h11-----9--9--16b-------------------
D|--------------------------------7---11------------------------------11-----------------------------
A|----------------------------------9----------------------------------------------------------------
E|---------------------------------

E|14--17b--14--------14--16--14-------------------------------------------------------------
B|----------------17------------14-------14--17------14--17------14--17-------14--17b----------
G|----------------------------------16b----------16b--------16b-----------16b----------
D|----------------------------------------------------------------------------------------------------
A|----------------------------------------------------------------------------------------------------
E|----------------------------------------------------------------------------------------------------

E|-14-------------------------------------------------------------------------------------------------
B|----17--14-----14-----------------------------------------------------------------------------
G|------------16--------16p14-----14------------------------------------------------------
D|---^5 times------------------16------16p14----14-----------------------------------------------
A|-------------------------------------------16----16p14------14-------------------------------
E|----------------------------------------------------------17--------------------------------------
Guitar Tab Creator is intended to store guitar tab created through the tool. It currently does not support in-line text editing. Any text you place in here will be lost. If you need to comment on your tab, please use the "Tab Notes" section located below.