you said to me

(/) Slide Up  (\) Slide Down  (h) Hammer On  (p) Pull Off  (b) Bend (r) Release (v) Vibrato


E|-------------------------------------
B|-------------------------------------
G|-------------------------------------
D|-------------------------------------
A|--------------12--10--7--8--8--------
E|--8--8--8--8-------------------8--8--



E|-------------------------------------
B|-------------------------------------
G|-------------------------------------
D|-------------------------------------
A|--8-----10--8-----------8-----10--8--
E|-----8---------8--5--3-----8---------



E|---------------------------------------
B|---------------------------------------
G|---------------------------------------
D|---------------------------------------
A|---------------------------------------
E|--8--8--8--8--8--10--12--13--13--8--8--
http://www.guitartabcreator.com
Guitar Tab Creator is intended to store guitar tab created through the tool. It currently does not support in-line text editing. Any text you place in here will be lost. If you need to comment on your tab, please use the "Tab Notes" section located below.