Pretty Girl

(/) Slide Up  (\) Slide Down  (h) Hammer On  (p) Pull Off  (b) Bend (r) Release (v) Vibrato

E|--------------------------------------------
B|--------------------------------------------
G|--------------------------------------------
D|-----------0--2--0--------------7--7--5-----
A|--------2-----------3--2--0--7-----------7--
E|--0--4--------------------------------------



E|--------------------------------------------------------------------------
B|--------------------------------------------------------------------------
G|--------------------------------------------------------------------------
D|-----------2--3--4--5-----5-----5--3-----3--2--0--------------------------
A|--3-----3--------------5-----5--------3-----------3--0-----0--0--2--3--3--
E|-----3--------------------------------------------------0-----------------



E|--------------------------------------------------------------------------------
B|--------------------------------------------------------------------------------
G|--------------------------------------------------------------------------------
D|-----------------2--3-----3--2--0--------------2--3--4--5--5--5--5--------------
A|--5-----5--5--5--------3-----------2--3-----3-----------------------------------
E|-----5-----------------------------------3--------------------------3--3--3--3--
http://www.guitartabcreator.com
Guitar Tab Creator is intended to store guitar tab created through the tool. It currently does not support in-line text editing. Any text you place in here will be lost. If you need to comment on your tab, please use the "Tab Notes" section located below.