Piece of work

(/) Slide Up  (\) Slide Down  (h) Hammer On  (p) Pull Off  (b) Bend (r) Release (v) Vibrato


E|-----------------------------------------------------------------------
B|-----------------------------------------------------------------------
G|-----------------------------------------------------------------------
D|-------------------------------------------------5-6-7-8-8-8-----------
A|-6-6-6---------6-6-6---------6-6-6---------6-6-6-------------8-10-8-10-
E|-------6-8-6-8-------6-8-6-8-------6-8-6-8-----------------------------



E|--------------------------
B|--------------------------
G|--------------------------
D|-------5-6-7-8-8-8------6-
A|-6-6-6-------------8-10---
E|--------------------------
http://www.guitartabcreator.com
Guitar Tab Creator is intended to store guitar tab created through the tool. It currently does not support in-line text editing. Any text you place in here will be lost. If you need to comment on your tab, please use the "Tab Notes" section located below.