The Opener

(/) Slide Up  (\) Slide Down  (h) Hammer On  (p) Pull Off  (b) Bend (r) Release (v) Vibrato

E|-------------------------------
B|-------------------------------
G|-------------------------------
D|-----------10--8---------------
A|-------10---------10--8--6-----
E|--6/8-----------------------8--



E|-----------------------------------
B|-----------------------------------
G|-----------------------------------
D|-----------------------------------
A|-----------------------------------
E|--8--8--8--6--4--4--4--4--4--4--4--



E|-----------------------------
B|-----------------------------
G|-----------------------------
D|-----------------------------
A|--3--3--3--3--5--6--6--8--8--
E|-----------------------------



E|---------------------------------------
B|---------------------------------------
G|---------------------------------------
D|-----------------------------7--8--10--
A|--3-----3-----3--6-----6--8------------
E|-----3-----3--------6------------------



E|-----------------------------------------------------
B|-----------------------------------------------------
G|-----------------------------------------------------
D|-----------------------------------------------------
A|--3--6--8--3--6--4--3--6--8--3--6--4--4--4--4--4--4--
E|-----------------------------------------------------
http://www.guitartabcreator.com
Guitar Tab Creator is intended to store guitar tab created through the tool. It currently does not support in-line text editing. Any text you place in here will be lost. If you need to comment on your tab, please use the "Tab Notes" section located below.