I'm on your side

(/) Slide Up  (\) Slide Down  (h) Hammer On  (p) Pull Off  (b) Bend (r) Release (v) Vibrato


E|-----------------------------------------------------
B|-----------------------------------------------------
G|-----------------------------------------------------
D|-----------------------------------------------------
A|--------7-----------7--7--------7--------------------
E|--5--5-----5--5--5--------5--5-----7--7--7--8--9--9--



E|-------------------------------------------------
B|-------------------------------------------------
G|-------------------------------------------------
D|---------------------------------------9---------
A|--------------------------6--7--9--11-----11--9--
E|--5--4--5--7--5--7--5--9-------------------------



E|--------------------------------------------------------------
B|--------------------------------------------------------------
G|--------------------------------------------------------------
D|--------------------------------------------------------------
A|--------------------------------------------------------------
E|--5--4--5--7--7--7--5--5--5--5--5--5--5--5--5--5--5--5--5--5--



E|-------------------------------------------------------
B|-------------------------------------------------------
G|-------------------------------------------------------
D|-------------------------------------------------------
A|-------------------------------------------------------
E|-9-9-9-7-9-9-9-7-5-5-5-5-5-5-5-5-7-7-9-9-9-9-9-9-9-9-9-
http://www.guitartabcreator.com
Guitar Tab Creator is intended to store guitar tab created through the tool. It currently does not support in-line text editing. Any text you place in here will be lost. If you need to comment on your tab, please use the "Tab Notes" section located below.