Dead to you

(/) Slide Up  (\) Slide Down  (h) Hammer On  (p) Pull Off  (b) Bend (r) Release (v) Vibrato


E|-----------------------------
B|-----------------------------
G|-----------------------------
D|-----------------------6--9--
A|--------4--5--7-----7--------
E|--7--5-----------7-----------



E|--------------------------------------
B|--------------------------------------
G|--------------------------------------
D|--------------------------------------
A|--------4--5--7-----7-----------------
E|--7--5-----------7-----7--9--7--5--0--



E|--------------------------------------------
B|--------------------------------------------
G|--------------------------------------------
D|--------------------------------------------
A|--7-----7--7--5--------------4--5--5-----4--
E|-----7-----------7--5--5--5-----------5-----



E|--------------------------------------------------
B|--------------------------------------------------
G|--------------------------------------------------
D|-----------------------------------------6--7--9--
A|-----------------4--5--6--7--7--------7-----------
E|--7--7--7--7--5-----------------7--7--------------



E|--------------------------------------------------
B|--------------------------------------------------
G|--------------------------------------------------
D|--------------------------------------------------
A|-----------------------------------4--5--5--------
E|--0--0--0--0--0--0--0--3--5--5--5-----------5--3--
http://www.guitartabcreator.com
Guitar Tab Creator is intended to store guitar tab created through the tool. It currently does not support in-line text editing. Any text you place in here will be lost. If you need to comment on your tab, please use the "Tab Notes" section located below.