Cutting Ropes

(/) Slide Up  (\) Slide Down  (h) Hammer On  (p) Pull Off  (b) Bend (r) Release (v) Vibrato


E|-------------------------------------------------------
B|-------------------------------------------------------
G|-----------------------2-----2-----3-2-0---------------
D|---1-2-3-------------2---2-2-----3-------2-3---3---1-2-
A|-3-------3---------0-----------1-------------3---3-----
E|-----------1-3-0-4-------------------------------------



E|-------------------------------------------------
B|-------------------------------------------------
G|-------------------------------------------------
D|-3---3-----3-7---7-----7-8---8-7-5-3-3---3---1-2-
A|---3---3-3-----7---7-7-----8-----------3---3-----
E|-------------------------------------------------



E|--------------------------------------------------
B|--------------------------------------------------
G|--------9-10-9------------------------------------
D|-----10--------10--------10--------11-----6-------
A|-8-8------------------10--------11------6---------
E|------------------8-8-------9-9-------4-----8-6-4-
http://www.guitartabcreator.com
Guitar Tab Creator is intended to store guitar tab created through the tool. It currently does not support in-line text editing. Any text you place in here will be lost. If you need to comment on your tab, please use the "Tab Notes" section located below.