Now I Know (Interlude) by Machine Gun Kelly

(/) Slide Up  (\) Slide Down  (h) Hammer On  (p) Pull Off  (b) Bend (r) Release (v) Vibrato

E|--------------------------
B|--------------7-----------
G|--------8--------8--------
D|-----8--------------8-----
A|--6--------6-----------6--
E|--------------------------



E|--------------------------
B|--------------4-----------
G|--------6--------6--------
D|-----6--------------6-----
A|--4--------4-----------4--
E|--------------------------



E|--------------------3--------------3-----
B|-----------------------3--------------3--
G|--------4--------4--------------4--------
D|-----4--------4--------------4-----------
A|--2--------2--------------2--------------
E|-----------------------------------------
http://www.guitartabcreator.com
Guitar Tab Creator is intended to store guitar tab created through the tool. It currently does not support in-line text editing. Any text you place in here will be lost. If you need to comment on your tab, please use the "Tab Notes" section located below.