You Won't Be Missed - Like Moths to Flames

(/) Slide Up  (\) Slide Down  (h) Hammer On  (p) Pull Off  (b) Bend (r) Release (v) Vibrato

Intro:

E|------------------------------------|
B|------------------------------------|
G|------------------------------------|
D|------------------------------------|
A|--4------3----4------3------1---1/3-|
E|----3--1---1----3--1---1--00--00----| << Play 4 times

Breakdown:

E|---0--------------------------|
B|---0--------------------------|
G|---0--------------------------|
D|------------------------------|
A|--0---0--0000--0--0--0--0--00-|
E|--1---1--1111--1--1--1--1--11-| << Play 4 times

Verse:

E|-----------|
B|-----------|
G|-----------|
D|-----------|
A|--0~~~-4~~~|
E|--0~~~-4~~~|

E|--------------------------------------------------------------------------------------|>
B|--------------------------------------------------------------------------------------| >
G|--------------------------------------------------------------------------------------| >
D|--------------------------------------------------------------------------------------| >
A|--------------------------------------------------------------------------------------| >
E|--0-0-12h13-0-0-0-0-0-0-12h13-10h12-0-0-0-0-10h12-0-0-0-0-12h13-0-0-10/12-------------| >
Play these twice
E|--------------------------------------------------------------------------------------| >
B|--------------------------------------------------------------------------------------| >
G|--------------------------------------------------------------------------------------| >
D|--------------------------------------------------------------------------------------| >
A|--------------------------------------------------------------------------------------| >
E|--0-0-12h13-0-0-0-0-0-0-12h13-10h12-0-0-0-0-10h12-0-0-0-0-0-0-0-0-0-0-10h12-0-0-8/10--|>

Chorus:

E|-------8----8-----------8----8----10p8-----------|--10------------13-13-12----|
B|---------------------------------------10p8------|-----10------------------13-|
G|--9/10---10---10---9/10---10---10-----------(3x)-|--------10~-9p10------------|
D|-------------------------------------------------|----------------------------| Repeat
A|-------------------------------------------------|----------------------------|
E|-------------------------------------------------|----------------------------|

Breakdown2:

E|---0--------------------------|
B|---0--------------------------|
G|---0--------------------------|
D|------------------------------|
A|--0---0--0000--0--0--0--0--00-|
E|--1---1--1111--1--1--1--1--11-| << Play twice

E|---0-------------------|
B|---0-------------------|
G|---0-------------------|
D|-----------------------|
A|--0----0---0-0-0-0--00-|
E|--1----1---1-1-1-1--11-| << Play twice

Verse:

E|--------------------------------------------------------------------------------------|>
B|--------------------------------------------------------------------------------------| >
G|--------------------------------------------------------------------------------------| >
D|--------------------------------------------------------------------------------------| >
A|--------------------------------------------------------------------------------------| >
E|--0-0-12h13-0-0-0-0-0-0-12h13-10h12-0-0-0-0-10h12-0-0-0-0-12h13-0-0-10/12-------------| >
Play these twice
E|--------------------------------------------------------------------------------------| >
B|--------------------------------------------------------------------------------------| >
G|--------------------------------------------------------------------------------------| >
D|--------------------------------------------------------------------------------------| >
A|--------------------------------------------------------------------------------------| >
E|--0-0-12h13-0-0-0-0-0-0-12h13-10h12-0-0-0-0-10h12-0-0-0-0-0-0-0-0-0-0-10h12-0-0-8/10--|>

Chorus:

E|-------8----8-----------8----8----10p8-----------|--10------------13-13-12----|
B|---------------------------------------10p8------|-----10------------------13-|
G|--9/10---10---10---9/10---10---10-----------(3x)-|--------10~-9p10------------|
D|-------------------------------------------------|----------------------------| Repeat
A|-------------------------------------------------|----------------------------|
E|-------------------------------------------------|----------------------------|

Outro:

E|--8--------------8p5--------8-------------10----10------------10------13-12-----------------|
B|------6------6--------5/3-------6------6-----10-----10-----------10----------13~/15--13p10~~|
G|----------9-------------------------9-------------------10-9--------------------------------|
D|--------------------------------------------------------------------------------------------|
A|--------------------------------------------------------------------------------------------|
E|--------------------------------------------------------------------------------------------|



Let Ring~~~
Guitar Tab Creator is intended to store guitar tab created through the tool. It currently does not support in-line text editing. Any text you place in here will be lost. If you need to comment on your tab, please use the "Tab Notes" section located below.