Megaman X - Storm Eagle Stage theme

(/) Slide Up  (\) Slide Down  (h) Hammer On  (p) Pull Off  (b) Bend (r) Release (v) Vibrato
E|---------------------------------14----15--14p12--14----12p10p9------------
B|--12----11--12--14--14h15p14p12--------------------------------------------
G|-----------------------------------------------------------------11p9--11--
D|---------------------------------------------------------------------------
A|---------------------------------------------------------------------------
E|---------------------------------------------------------------------------



E|---------------------------------14----15--14p12--14----12p10p9----12/14--
B|--12----11--12--14--14h15p14p12-------------------------------------------
G|--------------------------------------------------------------------------
D|--------------------------------------------------------------------------
A|--------------------------------------------------------------------------
E|--------------------------------------------------------------------------



E|--15--17--19----18--16--14--18----19--21--21b--19----15--17--19----18--16--14--18----19--
B|-----------------------------------------------------------------------------------------
G|-----------------------------------------------------------------------------------------
D|-----------------------------------------------------------------------------------------
A|-----------------------------------------------------------------------------------------
E|-----------------------------------------------------------------------------------------



E|--14p12--14----10p9--10-------------------------------------------------------------------
B|---------------------------12p10--12------------------------------------------------------
G|----------------------------------------11p9--11----7p6--7--------------------------------
D|--------------------------------------------------------------9p7--9----4p2--4------------
A|----------------------------------------------------------------------------------2p0--2--
E|------------------------------------------------------------------------------------------
http://www.guitartabcreator.com
Guitar Tab Creator is intended to store guitar tab created through the tool. It currently does not support in-line text editing. Any text you place in here will be lost. If you need to comment on your tab, please use the "Tab Notes" section located below.