Taylor

(/) Slide Up  (\) Slide Down  (h) Hammer On  (p) Pull Off  (b) Bend (r) Release (v) Vibrato


E|-----------------------------------------------------------
B|-----------------------------------------------------------
G|-----------------------------------------------------------
D|-----------------------------------------------------------
A|--1h3-----1h3p1-----1--1-----------------------1--2--3--3--
E|-------3---------3--------3p1p0--1--1--1h3--3--------------



E|-------------------------------------------------------------------
B|-------------------------------------------------------------------
G|-------------------------------------------------------------------
D|--0h3p0-----1p0----------------------------------------------------
A|---------3-------3--1--0-------------1-------1-------1-------1-----
E|--------------------------1--1--1h3-----1h3-----1h3-----1h3--------



E|--------------------------------------
B|--------------------------------------
G|--------------------------------------
D|-----3--3/5--5--3p0--2p0--------------
A|--3-----------------------3-----------
E|-----------------------------1--1-----



E|--------0--0--0--0--0---------0--
B|--1--1--3--5--5--3--1---------1--
G|--0--0-----------------0h2p0--2--
D|--2--2------------------------3--
A|--3--3---------------------------
E|---------------------------------
http://www.guitartabcreator.com
Guitar Tab Creator is intended to store guitar tab created through the tool. It currently does not support in-line text editing. Any text you place in here will be lost. If you need to comment on your tab, please use the "Tab Notes" section located below.