One Way Out

(/) Slide Up  (\) Slide Down  (h) Hammer On  (p) Pull Off  (b) Bend (r) Release (v) Vibrato

Stave 1:

E|-------------------------------------------------------------------
B|-------------------------------------------------------------------
G|-------------------------------------------------------------------
D|-----7--7p5-----7--5-----5--5--7---------7--7p5-----7--------------
A|-------------7--------7--------------------------7-----------------
E|--5-----------------------------------5----------------------------

Stave 2:

E|-------------------------------------------------------
B|-------------------------------------------------------
G|-------------------------------------------------------
D|-----7--7p5-----7--5-----5--5--7---------7--7p5-----7--
A|-------------7--------7--------------------------7-----
E|--5-----------------------------------5----------------

Stave 3:

E|-------------------------------------------------------
B|-------------------------------------------------------
G|-----7--7p5-----7--5-----5--5--7---------7--7p5-----7--
D|-------------7--------7--------------------------7-----
A|--5-----------------------------------5----------------
E|-------------------------------------------------------

Stave 4:

E|--------------------------------------------------------
B|--------------------------------------------------------
G|--------------------------------------------------------
D|-----7--7p5-----7--5-----5--5--7---------7--7--5-----7--
A|-------------7--------7---------------------------7-----
E|--5-----------------------------------5-----------------

Stave 5:

E|------------------------------------------------------------------
B|------------------------------------------------------------------
G|-----9--9p7-----9--7-----7--7--9-----7--7p5-----7--5-----5--5--7--
D|-------------9--------9----------------------7--------7-----------
A|--7-------------------------------5-------------------------------
E|------------------------------------------------------------------

Stave 6:

E|---------------------------------------------------
B|---------------------------------------------------
G|---------------------------------------------------
D|-----7--7p5-----7--5-----5--5--7-----7--7p5-----7--
A|-------------7--------7----------------------7-----
E|--5-------------------------------5----------------

http://www.guitartabcreator.com
Guitar Tab Creator is intended to store guitar tab created through the tool. It currently does not support in-line text editing. Any text you place in here will be lost. If you need to comment on your tab, please use the "Tab Notes" section located below.