The Melancholy Of Haruhi Suzumiya

(/) Slide Up  (\) Slide Down  (h) Hammer On  (p) Pull Off  (b) Bend (r) Release (v) Vibrato


E|--------3-----2-----0-----------3-----2-----0-----------3-----2-----0-----------0--------
B|-----0-----0-----0-----0-----0-----0-----0-----0-----0-----0-----0-----0-----0-----0--4--
G|--------------------------------------------------------------------------------------2--
D|--2-----------------------0-----------------------------------------------------------4--
A|--------------------------------------------------4-----------------------3-----------2--
E|-----------------------------------------------------------------------------------------



E|--------3-----2-----0-----2-----3-----2-----0-----------3-----2-----0-----------3-----2-----0-----
B|-----0-----0-----0-----0-----0-----0-----0-----0-----0-----0-----0-----0-----0-----0-----0-----0--
G|--------------------------------------------------------------------------------------------------
D|--2-----------------------0-----------------------------------------------------------------------
A|--------------------------------------------------4-----------------------3-----------------------
E|--------------------------------------------------------------------------------------------------



E|--------3-----2-----0-----------3--------3--------2--------2-----
B|-----1-----1-----1-----0-----2--------2--------5--------5-----4--
G|--2-----------------------3--------3--------4--------4--------4--
D|--------------------------------------------------------------4--
A|--------------------------------------------------------------2--
E|-----------------------------------------------------------------
http://www.guitartabcreator.com
Guitar Tab Creator is intended to store guitar tab created through the tool. It currently does not support in-line text editing. Any text you place in here will be lost. If you need to comment on your tab, please use the "Tab Notes" section located below.