Major Pentatonic Licks (G)

(/) Slide Up  (\) Slide Down  (h) Hammer On  (p) Pull Off  (b) Bend (r) Release (v) Vibrato


E|-----------------------------------------------------
B|--------------------------------------------------8--
G|--------------------------------7--9--7-----7--9-----
D|-----------5-----5--7--9--7--9-----------9-----------
A|-----5--7-----7--------------------------------------
E|--7--------------------------------------------------



E|----------------------------------------------10--12--
B|--8-----------8-----8--10--8--10--12--10--12----------
G|-----9--7--9-----9------------------------------------
D|------------------------------------------------------
A|------------------------------------------------------
E|------------------------------------------------------



E|----------------------------------------------------------------------15--
B|----------------------------------------------15------15--17--15--17------
G|----------12------12--14--12--14--16--14--16------16----------------------
D|--12--14------14----------------------------------------------------------
A|--------------------------------------------------------------------------
E|--------------------------------------------------------------------------



E|--3-----------------------------------------------------
B|-----5--3-----3-----------------------------------------
G|-----------4-----4--2--0-----0--2--0--------------------
D|--------------------------2-----------2--0-----0--------
A|--------------------------------------------2-----2-----
E|-----------------------------------------------------3--
http://www.guitartabcreator.com
Guitar Tab Creator is intended to store guitar tab created through the tool. It currently does not support in-line text editing. Any text you place in here will be lost. If you need to comment on your tab, please use the "Tab Notes" section located below.