G Major Pentatonic

(/) Slide Up  (\) Slide Down  (h) Hammer On  (p) Pull Off  (b) Bend (r) Release (v) Vibrato


E|--------------------
B|--------------------
G|--------------------
D|-----------------5--
A|-----------5--7-----
E|--3--5--7-----------



E|--------------------
B|-----------------8--
G|-----------7--9-----
D|--5--7--9-----------
A|--------------------
E|--------------------



E|-------------10--12--15--
B|--8--10--12--------------
G|-------------------------
D|-------------------------
A|-------------------------
E|-------------------------



E|--------------------------
B|--------------------------
G|----------------------12--
D|--------------12--14------
A|--10--12--14--------------
E|--------------------------



E|----------------------15--
B|--------------15--17------
G|--12--14--16--------------
D|--------------------------
A|--------------------------
E|--------------------------
http://www.guitartabcreator.com
Guitar Tab Creator is intended to store guitar tab created through the tool. It currently does not support in-line text editing. Any text you place in here will be lost. If you need to comment on your tab, please use the "Tab Notes" section located below.