Fur Elise

(/) Slide Up  (\) Slide Down  (h) Hammer On  (p) Pull Off  (b) Bend (r) Release (v) Vibrato

E|--0-----0-----0--------------------------------------
B|-----4-----4-----0--3--1--------------0--------0--1--
G|--------------------------2--------2--------1--------
D|--------------------------------2--------2-----------
A|-----------------------------3-----------------------
E|-----------------------------------------------------



E|--0-----0-----0--------------------------------------
B|-----4-----4-----0--3--1--------------0-----1--0-----
G|--------------------------2--------2--------------2--
D|--------------------------------2--------2-----------
A|-----------------------------3-----------------------
E|-----------------------------------------------------



E|--0-----0-----0--------------------------------------
B|-----4-----4-----0--3--1--------------0--------0--1--
G|--------------------------2--------2--------1--------
D|--------------------------------2--------2-----------
A|-----------------------------3-----------------------
E|-----------------------------------------------------



E|--0-----0-----0--------------------------------------
B|-----4-----4-----0--3--1--------------0-----1--0-----
G|--------------------------2--------2--------------2--
D|--------------------------------2--------2-----------
A|-----------------------------3-----------------------
E|-----------------------------------------------------



E|-----------0-----1--0--------0-----------------------
B|--0--1--3--------------3--------3--1-----3--1--0-----
G|--------------0--------------------------------------
D|--------------------------3-----------2--------------
A|-----------------------------------------------------
E|--------------------------------------------------0--
http://www.guitartabcreator.com
Guitar Tab Creator is intended to store guitar tab created through the tool. It currently does not support in-line text editing. Any text you place in here will be lost. If you need to comment on your tab, please use the "Tab Notes" section located below.