Walk This Way

(/) Slide Up  (\) Slide Down  (h) Hammer On  (p) Pull Off  (b) Bend (r) Release (v) Vibrato


E|--------------------------------------------------------------
B|--------------------------------------------------------------
G|--------------------------------------------------------------
D|-----------2-----------2--------------2-----------2-------2v--
A|--0--1--2-----0--1--2--------0--1--2-----0--1--2--------------
E|--------------------------0--------------------------3p0------



E|-----------------------------------------------------------
B|-----------------------------------------------------------
G|-----------------------------------------------------2-----
D|-----------2-----------2--------------2-----------2--2-----
A|--0--1--2-----0--1--2--------0--1--2-----0--1--2-----0-----
E|--------------------------0--------------------------------



E|----------------------------------------------------
B|----------------------------------------------------
G|----------------------------------------------------
D|-----------------------------10---------------------
A|-----------10--10--12p10---------10--13--10--12p10--
E|--8--8--8-----------------8-------------------------



E|----------0---0---0---------------11--11--11--
B|----------10--10--10--------------10--10--10--
G|----------8---8---8---10--10--10--10--10--10--
D|--10--10--7---7---7---10--10--10--------------
A|--10--10--------------8---8---8---------------
E|--8---8---------------------------------------
http://www.guitartabcreator.com
Guitar Tab Creator is intended to store guitar tab created through the tool. It currently does not support in-line text editing. Any text you place in here will be lost. If you need to comment on your tab, please use the "Tab Notes" section located below.