The Metal

(/) Slide Up  (\) Slide Down  (h) Hammer On  (p) Pull Off  (b) Bend (r) Release (v) Vibrato


E|------------------------------------------------------------------
B|------------------------------------------------------------------
G|------------------------------------------------------------------
D|--2--2--2-----2--2---------------------2--2--2-----2--2-----------
A|--2--2--2-----2--2--3p2p0h2p0h2h3p2p0--2--2--2-----2--2--3p2p0h2--
E|--2--2--2--5--2--2---------------------2--2--2--5--2--2-----------



E|-------------------------------------------------------------------
B|-------------------------------------------------------------------
G|-------------------------------------------------------------------
D|--2--2--2-----2--2---------------------------5--3p2p0h2p0h2h3p2p0--
A|--2--2--2-----2--2--3p2p0h2p0h2h3p2p0--3--3------------------------
E|--2--2--2--5--2--2---------------------3--3------------------------



E|----------------------------------
B|----------------------------------
G|----------------------------------
D|----------------------------------
A|--2--2--5--3--2----2--2--5--3--2--
E|--2--2--5--3--2----2--2--5--3--2--



E|---------------------------------------------
B|---------------------------------------------
G|--9--7--9--7--9--10--9--7--9--7--12--11--10--
D|--9--7--9--7--9--10--9--7--9--7--12--11--10--
A|--7--5--7--5--7--8---7--5--7--5--10--9---8---
E|---------------------------------------------
http://www.guitartabcreator.com
Guitar Tab Creator is intended to store guitar tab created through the tool. It currently does not support in-line text editing. Any text you place in here will be lost. If you need to comment on your tab, please use the "Tab Notes" section located below.