howls moving castle

(/) Slide Up  (\) Slide Down  (h) Hammer On  (p) Pull Off  (b) Bend (r) Release (v) Vibrato




E|--------------------|---------------|---------------------|------------------|------------|
B|--0--1--0--1--0--1--|----0---0---0--|---------------------|------------------|--0---------|
D|--0--2--0--2--0--2--|--2---2---2----|---0--2--0--2--0--2--|-------4-----1----|-------1----|
A|--------------------|--4---4---4----|---2--4--2--4--2--4--|-------6-----2----|-------2----|
E|--------------------|---------------|---------------------|-------5-----2----|-------2----|

E|------------------------
B|---------------0
G|--------0---------0
D|-----2------------2
A|--2------------0
E|-----------------
p://www.guitartabcreator.com
Guitar Tab Creator is intended to store guitar tab created through the tool. It currently does not support in-line text editing. Any text you place in here will be lost. If you need to comment on your tab, please use the "Tab Notes" section located below.