Freedom's Ghost - new bit

(/) Slide Up  (\) Slide Down  (h) Hammer On  (p) Pull Off  (b) Bend (r) Release (v) Vibrato


E|--------------------------------------|--
B|-----------5-----------5--------------|--
G|-----------------------------5--7--8--|--
D|--5--5--5-----5--5--5-----5-----------|--
A|--------------------------------------|--
E|--------------------------------------|--



E|---------------------
B|---------------------
G|--14------14---------
D|------15------15--14b
A|---------------------
E|---------------------



E|----------------------------------|-----------------
B|----------------------------------|-----------------
G|--14--------------------------12--|--14-------------
D|------15--14--15--12--14--15------|------15--14-----
A|----------------------------------|-----------------
E|----------------------------------|-----------------



E|------------------------------------------------------------------
B|--13--13--13--13--13--13------------------------------------------
G|--14--14--14--14--14--14--14--14--14--14--14--14--14--14--14--14--
D|--12--12--12--12--12--12--12--12--12--12--12--12--12--12--12--12--
A|--------------------------13--13--13--13--13--13--13--13--13--13--
E|------------------------------------------------------------------



E|--------------------------------------|-----------------------
B|--------------------------------------|-----------------------
G|--------------------------------------|-----------------------
D|--0--0--3--5--3--5--8--8--3--5--3--5--|--3--3--5--3--5--8--8--
A|--0--0--3--5--3--5--8--8--3--5--3--5--|--3--3--5--3--5--8--8--
E|--0--0--3--5--3--5--8--8--3--5--3--5--|--3--3--5--3--5--8--8--
http://www.guitartabcreator.com
Guitar Tab Creator is intended to store guitar tab created through the tool. It currently does not support in-line text editing. Any text you place in here will be lost. If you need to comment on your tab, please use the "Tab Notes" section located below.