Smooth Emotion

(/) Slide Up  (\) Slide Down  (h) Hammer On  (p) Pull Off  (b) Bend (r) Release (v) Vibrato
E|------9------------9------------9------------9------
B|---------10-----------10-----------10-----------10--
G|--11-----------11-----------11-----------11---------
D|----------------------------------------------------
A|----------------------------------------------------
E|----------------------------------------------------



E|-----4----------4----------4----------4-----
B|--------5----------5----------5----------5--
G|--6----------6----------6----------6--------
D|--------------------------------------------
A|--------------------------------------------
E|--------------------------------------------



E|------9------------9------------9------------9------
B|---------10-----------10-----------10-----------10--
G|--11-----------11-----------11-----------11---------
D|----------------------------------------------------
A|----------------------------------------------------
E|----------------------------------------------------



E|-----4----------4----------4----------4-----
B|--------5----------5----------5----------5--
G|--6----------6----------6----------6--------
D|--------------------------------------------
A|--------------------------------------------
E|--------------------------------------------



E|-----2----------2----------2----------2-----
B|--------3----------3----------3----------3--
G|--4----------4----------4----------4--------
D|--------------------------------------------
A|--------------------------------------------
E|--------------------------------------------



E|-----4----------4----------4----------4-----
B|--------5----------5----------5----------5--
G|--6----------6----------6----------6--------
D|--------------------------------------------
A|--------------------------------------------
E|--------------------------------------------



E|------9------------9------------9------------9----------
B|---------10-----------10-----------10-----------10------
G|--11-----------11-----------11-----------11---------11--
D|--------------------------------------------------------
A|--------------------------------------------------------
E|--------------------------------------------------------



E|----9----9--------9----9--------9----9--------9----9----
B|------10---10-------10---10-------10---10-------10---10-
G|-11------------11------------11------------11-----------
D|--------------------------------------------------------
A|--------------------------------------------------------
E|--------------------------------------------------------



E|---4---4------4---4------4---4------4---4---
B|-----5---5------5---5------5---5------5---5-
G|-6----------6----------6----------6---------
D|--------------------------------------------
A|--------------------------------------------
E|--------------------------------------------



E|---2---2------2---2---
B|-----3---3------3---3-
G|-4----------4---------
D|----------------------
A|----------------------
E|----------------------



E|---4---4------4---4------4---4------4---4---
B|-----5---5------5---5------5---5------5---5-
G|-6----------6----------6----------6---------
D|--------------------------------------------
A|--------------------------------------------
E|--------------------------------------------



E|----9----9--------9----9--------9----9--------9----9--------
B|------10---10-------10---10-------10---10-------10---10-----
G|-11------------11------------11------------11------------11-
D|------------------------------------------------------------
A|------------------------------------------------------------
E|------------------------------------------------------------



E|-
B|-
G|-
D|-
A|-
E|-
http://www.guitartabcreator.com
Guitar Tab Creator is intended to store guitar tab created through the tool. It currently does not support in-line text editing. Any text you place in here will be lost. If you need to comment on your tab, please use the "Tab Notes" section located below.