Safe and Sound

(/) Slide Up  (\) Slide Down  (h) Hammer On  (p) Pull Off  (b) Bend (r) Release (v) Vibrato


E|--------5p4-----
B|--------7-------
G|-----6-------6--
D|--4-------------
A|----------------
E|----------------



E|-----------
B|--------5--
G|--------6--
D|-----6-----
A|--4--------
E|-----------



E|----------------
B|--0h2-----2--0--
G|--2-------2--2--
D|--2-------2--2--
A|--0----0--------
E|----------------



E|-------------
B|----------0--
G|-------------
D|--4h6--------
A|-------------
E|--0----0-----



E|-------------
B|----------5--
G|-------4-----
D|-------------
A|--4h6--------
E|-------------
http://www.guitartabcreator.com
Guitar Tab Creator is intended to store guitar tab created through the tool. It currently does not support in-line text editing. Any text you place in here will be lost. If you need to comment on your tab, please use the "Tab Notes" section located below.