Slither - Lorraine Keast 2013 ©

(/) Slide Up  (\) Slide Down  (h) Hammer On  (p) Pull Off  (b) Bend (r) Release (v) Vibrato
E|-------------------------
B|-------------------------
G|-------------------------
D|-----0h11p0h11p0---------
A|--9----------------------
E|-------------------------



E|-------------------------------------------------------------------------------------
B|---------------------------------6p0--------------------------------------------6p0--
G|--------------------0----------------------------------------------0-----------------
D|-------0h9p0--4----------------------------0h11p0-----0h9p0--4-----------------------
A|--0h7---------4---------------4-------4/9----------7---------4---------------4-------
E|-----------------0-----0h3/4------------------------------------0-----0h3/4----------



E|---------------------
B|---------------------
G|---------------------
D|-----0h11p0----------
A|--9--9-------0h7-----
E|---------------------



E|---------------------------------------------------------------
B|----------------------------6p0--------------------------------
G|---------------0-----------------------------------------------
D|--0h9p0--4--------------------------------0h11p0-----0h9p0-----
A|---------4---------------4-------0h9p0h9----------7------------
E|------------0-----0h3/4----------------------------------------



E|-----
B|-----
G|-----
D|-----
A|-----
E|-----



E|----------------------------------------------------
B|----------------------------------------------------
G|----------------------------------------------------
D|--4v--/9--------9--------9-----7---h9/11-----11-----
A|--4----------0--------0-----------------------------
E|----------0--------0--------0-----0-------0---------



E|---------------------------------------------
B|---------------------------------------------
G|---------------------------------------------
D|---------------------------------------------
A|--5/7-----0--7-----0--7--5/7b7p0-------------
E|-------0--------0--------------------0h5v----



E|----------------------------------------------------------------------------------------------
B|----------------------------------------------------------------------------------------------
G|----------------------------------------------------------------------------------------------
D|------------4/9--------9--------9-----7-----9/11-------------------------------------------4--
A|--0-----------------0--------0-----------------------0--5/7v-----7v-----7v--b7-------------4--
E|-----0-----------0--------0--------0-----0--------0-----------0------0----------0h5--5--0-----



E|--
B|--
G|--
D|--
A|--
E|--
http://www.guitartabcreator.com
Guitar Tab Creator is intended to store guitar tab created through the tool. It currently does not support in-line text editing. Any text you place in here will be lost. If you need to comment on your tab, please use the "Tab Notes" section located below.