Peaches tab Lorraine Keast 2013 ©

CAPO - SECOND FRET. © Lorraine Keast 2013 Peaches.

INTRO:

(/) Slide Up (\) Slide Down (h) Hammer On (p) Pull Off (b) Bend (r) Release (v) Vibrato
E|-------------------------------------------------------------------------------------
B|----------------------0--------------------------0-----------------------------------
G|-------------------0--------------------0--------------------------------------------
D|--11-----------11--------11\9-----9-----------9-----9\7--7-------------7-------------
A|--9---------9------------------7-----7-----7-------------5-------------5-------------
E|---------0--------------------------------------------------0--0--0-------0--0-------



E|----------------
B|----------------
G|----------------
D|--7/11b12-------
A|--5-------------
E|----------------



E|-----------------------------------------------------------------------------
B|---------------------0-----------------------------0-------------------------
G|------------------0-----------------------0----------------------------------
D|--11----------11-----------11\9-----9-----------9-----7-------------7--------
A|--9--------9------------9--------7-----7-----7--------5-------------5--------
E|--------0------------------------------------------------0--0----0-----0-----



E|-----------0-----------------------------0--------------------------
B|--------------0--------------------0--------0--------------------0--
G|--------4-----------------------4-----4-----------------------4-----
D|--------4--------------------4--------4--------------------4--------
A|--------------------0-----0-----------------------0-----0-----------
E|--0--0-----------0-----0-----------------------0-----0--------------





VERSE:



E|--------------------------------------------------------------
B|--------------------------------------------------------------
G|--------------------------------------------------------------
D|--11--11--11----11--11--11--11--11--11--11--11----9--9--9-----
A|--9---9---9-----9---9---9---9---9---9---9---9-----7--7--7-----
E|--------------------------------------------------------------



E|---------------------------------------------------------------
B|---------------------------------------------------------------
G|---------------------------------------------------------------
D|--9--9--9--9----9--9--9--9----7--7--7--7--7----x--x---7--7--7--
A|--7--7--7--7----7--7--7--7----5--5--5--5--5----x--x---5--5--5--
E|-----------------------------------------------x--x------------



E|------------------------------------
B|------------------------------------
G|------------------------------------
D|--7--7--7--7----7--7--7--7----------
A|--5--5--5--5----5--5--5--5----------
E|------------------------------------




E|--------------------------------------------------------------
B|--------------------------------------------------------------
G|--------------------------------------------------------------
D|--11--11--11----11--11--11--11--11--11--11--11----9--9--9-----
A|--9---9---9-----9---9---9---9---9---9---9---9-----7--7--7-----
E|--------------------------------------------------------------



E|----------------9--9-------------------------------------------
B|---------------------------------------------------------------
G|---------------------------------------------------------------
D|--9--9--9--9----9--9--9--9----7--7--7--7--7----x--x---7--7--7--
A|--7--7--7--7----7--7--7--7----5--5--5--5--5----x--x---5--5--5--
E|-----------------------------------------------x--x------------



E|------------------------------------
B|------------------------------------
G|------------------------------------
D|--7--7--7--7----7--7--7--7----------
A|--5--5--5--5----5--5--5--5----------
E|------------------------------------



BRIDGE:

E|------------------------------------------------------------------------------
B|------------------------------------------------------------------------------
G|--9--7--6--7--6h7--6--4----7--6--4--6--4h6--4--3----4--4--4--4----4--4--4--4--
D|----------------------------------------------------4--4--4--4----4--4--4--4--
A|------------------------------------------------------------------------------
E|----------------------------------------------------0--0--0--0----0--0--0--0--




E|------------------------------------------------------------------------------
B|------------------------------------------------------------------------------
G|--9--7--6--7--6h7--6--4----7--6--4--6--4h6--4--3----4--4--4--4----4--4--4--4--
D|----------------------------------------------------4--4--4--4----4--4--4--4--
A|------------------------------------------------------------------------------
E|----------------------------------------------------0--0--0--0----0--0--0--0--



°°°°°°°°°°°°°°°°°°°°°°°°°°°°°°°°°°°°°°°°°°°°°°°°°°°°°°°°°°°°°°°°°°°°°°°°°°°°°°°°°°°°°°°°°°°°°°°°°



E|------------------------------------------------------------------------------
B|--3--3--3----3--3--3--3----3--3--3--3----5--5--5----5--5--5--5----5--5--5--5--
G|--4--4--4----4--4--4--4----4--4--4--4----4--4--4----4--4--4--4----4--4--4--4--
D|------------------------------------------------------------------------------
A|------------------------------------------------------------------------------
E|------------------------------------------------------------------------------



E|--3--3--3----3--3--3--3----3--3--3--3----5--3--------------0-----0-------0-----0-----
B|-----------------------------------------------5--3-----3----------------------------
G|--4--4--4----4--4--4--4----4--4--4--4----4--4--4--4--4-----4--4--4--4----4--4--4--4--
D|-----------------------------------------------------------4--4--4--4----4--4--4--4--
A|-----------------------------------------------------------0--0--0--0----0--0--0--0--
E|-------------------------------------------------------------------------------------



E|------------------------------------------------------------------------------
B|--3--3--3----3--3--3--3----3--3--3--3----5--5--5----5--5--5--5----5--5--5--5--
G|--4--4--4----4--4--4--4----4--4--4--4----4--4--4----4--4--4--4----4--4--4--4--
D|------------------------------------------------------------------------------
A|------------------------------------------------------------------------------
E|------------------------------------------------------------------------------



E|--3--3--3----3--3--3--3----3--3--3--3----5--3--------------0-----0-------0-----0-----
B|-----------------------------------------------5--3-----3----------------------------
G|--4--4--4----4--4--4--4----4--4--4--4----4--4--4--4--4-----4--4--4--4----4--4--4--4--
D|-----------------------------------------------------------4--4--4--4----4--4--4--4--
A|-----------------------------------------------------------0--0--0--0----0--0--0--0--
E|-------------------------------------------------------------------------------------


°°°°°°°°°°°°°°°°°°°°°°°°°°°°°°°°°°°°°°°°°°°°°°°°°°°°°°°°°°°°°°°°°°°°°°°°°°°°°°°°°°°°°°°°°°°°°°°°°

CHORUS:


E|---------------------------------------- -------------------
B|---------------------------------------- -------------------
G|-6-6-6-6-6-6-6/11-11-11-11-11-11-11-11-- -4-4-4-4---4-4-4-4-
D|---------------------------------------- x2 -4-4-4-4---4-4-4-4-
A|-4-4-4-4-4-4-4-9--9--9--9--9--9--9--9--- -------------------
E|---------------------------------------- -2-2-2-2---2-2-2-2-



E|---------------------------------------- -------------------
B|---------------------------------------- ---
G|-6-6-6-6-6-6-6/11-11-11-11-11-11-11-11-- -4-
D|---------------------------------------- x1 -4- RING OUT ------>
A|-4-4-4-4-4-4-4-9--9--9--9--9--9--9--9--- ---
E|---------------------------------------- -2-


SOLO:


E|-----12-----10-----9v-----7h9-----10-----9v-----7h9-----10-----9v-----4/5-----7p0-----------
B|--------------------------------------------------------------------------------------------
G|--------------------------------------------------------------------------------------------
D|--------------------------------------------------------------------------------------------
A|--------------------------------------------------------------------------------------------
E|--------------------------------------------------------------------------------------------



E|-----------------
B|-----------------
G|-----------------
D|-----------------
A|-----------------
E|-----0-----0-----



E|-----12-----10-----9v-----7h9-----10-----9v-----7h9-----10-----9v-----4/5-----7p0-----
B|--------------------------------------------------------------------------------------
G|--------------------------------------------------------------------------------------
D|--------------------------------------------------------------------------------------
A|--------------------------------------------------------------------------------------
E|--------------------------------------------------------------------------------------




E|-------------------
B|-------------------
G|-------------------
D|-------------------
A|-------------------
E|----0----0----0----




E|-----12-----10-----9v-----------------0-----7h9-----10-----9v-----------------0-----------
B|--------------------------0---------------------------------------0-----------------------
G|------------------------------------------------------------------------------------------
D|------------------------------------------------------------------------------------------
A|--------------------------------0---------------------------------------0-----------------
E|------------------------------------------------------------------------------------------



E|-----7h9-----10-----9v-----------------0-----4/5-----7p0-----------------
B|---------------------------0---------------------------------------------
G|-------------------------------------------------------------------------
D|-------------------------------------------------------------------------
A|---------------------------------0---------------------------------------
E|-------------------------------------------------------------0-----0-----0






E|--12--10--9v--------0--7h9--10--9v--------0--7h9--10--9v--------0--4/5--7p0--------
B|--------------0---------------------0---------------------0------------------------
G|-----------------------------------------------------------------------------------
D|-----------------------------------------------------------------------------------
A|-----------------0---------------------0---------------------0---------------------
E|-----------------------------------------------------------------------------0--0--



-----------------------
SECOND BRIDGE:

E|-----------------------------------------------------------
B|-----------------------------------------------------------
G|--------5------------------------------5-------------------
D|--11---------9----4-------------11----------9----4---- ----RING OUT ----->
A|--9-----6----7----4-------------9------6----7----4---------
E|--------4------------0-0-0-------------4---------0---0-0-0-


E|----------------------------------------------------------
B|-------------------------0--------------------0-----------
G|----------------------------5-----5-----------------------
D|--11-----------11-----------------------9-----------4-----
A|--9---9-----9---------9-----6--------6-----7----------4-----
E|---------0---------0--------4--4-----------------0--0----0-



E|-----------
B|-----------
G|-----------
D|--4--4-----
A|--4--4-----
E|--0--0--0--

E|----------------------------------------------------------
B|-------------------------0--------------------0-----------
G|----------------------------5-----5-----------------------
D|--11-----------11-----------------------9--9--------4-----
A|--9---9-----9---------9-----6--------6--7--7--------4-----
E|---------0---------0--------4--4-----------------0--0-----



E|-----------
B|-----------
G|-----------
D|--4--4-----
A|--4--4-----RING OUT ---->
E|--0--0--0--



XXX


CHORUS:


E|-------------------------------------------0---0-----0---0-
B|-----------------------------------------------------------
G|-6-6-6-6-6-6-6/11-11-11-11-11-11-11-11---4-4-4-4---4-4-4-4-
D|-----------------------------------------4-4-4-4---4-4-4-4-
A|-4-4-4-4-4-4-4-9--9--9--9--9--9--9--9----------------------
E|-----------------------------------------2-2-2-2---2-2-2-2-



E|-----------------------------------------------------------
B|-----------------------------------------------------------
G|-6-6-6-6-6-6-6/11-11-11-11-11-11-11-11---4-
D|-----------------------------------------4-RING OUT------>
A|-4-4-4-4-4-4-4-9--9--9--9--9--9--9--9------
E|-----------------------------------------2-



VERSE:



E|--------------------------------------------------------------
B|--------------------------------------------------------------
G|--------------------------------------------------------------
D|--11--11--11----11--11--11--11--11--11--11--11----9--9--9-----
A|--9---9---9-----9---9---9---9---9---9---9---9-----7--7--7-----
E|--------------------------------------------------------------



E|---------------------------------------------------------------
B|---------------------------------------------------------------
G|---------------------------------------------------------------
D|--9--9--9--9----9--9--9--9----7--7--7--7--7----x--x---7--7--7--
A|--7--7--7--7----7--7--7--7----5--5--5--5--5----x--x---5--5--5--
E|-----------------------------------------------x--x------------



E|------------------------------------
B|------------------------------------
G|------------------------------------
D|--7--7--7--7----7--7--7--7----------
A|--5--5--5--5----5--5--5--5----------
E|------------------------------------




E|--------------------------------------------------------------
B|--------------------------------------------------------------
G|--------------------------------------------------------------
D|--11--11--11----11--11--11--11--11--11--11--11----9--9--9-----
A|--9---9---9-----9---9---9---9---9---9---9---9-----7--7--7-----
E|--------------------------------------------------------------



E|--9--9--9--9---------------------------------------------------
B|---------------------------------------------------------------
G|---------------------------------------------------------------
D|--9--9--9--9----9--9--9--9----7--7--7--7--7----x--x---7--7--7--
A|--7--7--7--7----7--7--7--7----5--5--5--5--5----x--x---5--5--5--
E|-----------------------------------------------x--x------------



E|------------------------------------
B|------------------------------------
G|------------------------------------
D|--7--7--7--7----7--7--7--7----------
A|--5--5--5--5----5--5--5--5----------
E|------------------------------------




SECOND SOLO/BRIDGE:

E|------------------------------------------------------------------------------
B|------------------------------------------------------------------------------
G|--9--7--6--7--6h7--6--4----7--6--4--6--4h6--4--3----4--4--4--4----4--4--4--4--
D|----------------------------------------------------4--4--4--4----4--4--4--4--
A|------------------------------------------------------------------------------
E|----------------------------------------------------0--0--0--0----0--0--0--0--



E|----------------------------------------------------
B|----------------------------------------------------
G|--9--7--6--7--6h7--6--4----7--6--4--6--4h6--4--3--0- pause 0-3--0--3--4--0-----3--3h4--3--0-0-3--4--0
D|----------------------------------------------------0
A|----------------------------------------------------
E|----------------------------------------------------



E|-------------------------------------------------------------------------------------------------
B|--7--9--7----------------------------------------------------------------------------------------
G|-----------6--7--6h7--6--4--7--6--4--6--4h6--4--0-----------0-----3--4----3--4--3--4--3/4--3--0--
D|---------------------------------------------------------0-----0---------------------------------
A|-------------------------------------------------------------------------------------------------
E|-------------------------------------------------------------------------------------------------



E|-----------------------------------------------------0---
B|--7--9--7------------------------------------------------
G|-----------6--7--6h7--6--4----6--4--3--4--3h4--3--4------0
D|--------------------------------------------------4------
A|---------------------------------------------------------
E|--------------------------------------------------2------





-------------------
B|-------------------
G|-4-4-4-4---4-4-4-4-
D|-4-4-4-4---4-4-4-4-
A|-------------------
E|-2-2-2-2---2-2-2-2-


--0-----------------------
B|-----0--------------------
G|4-------4-4-4-4---4-4-4-4-
D|4-------4-4-4-4---4-4-4-4-
A|--------------------------
E|2-------2-2-2-2---2-2-2-2-



CHORUS:


E|-------------------------------------------0---0-----0---0-
B|-----------------------------------------------------------
G|-6-6-6-6-6-6-6/11-11-11-11-11-11-11-11---4-4-4-4---4-4-4-4-
D|-----------------------------------------4-4-4-4---4-4-4-4-
A|-4-4-4-4-4-4-4-9--9--9--9--9--9--9--9----------------------
E|-----------------------------------------2-2-2-2---2-2-2-2-



E|-----------------------------------------------------------
B|-----------------------------------------------------------
G|-6-6-6-6-6-6-6/11-11-11-11-11-11-11-11---4-
D|-----------------------------------------4-RING OUT------>
A|-4-4-4-4-4-4-4-9--9--9--9--9--9--9--9------
E|-----------------------------------------2-





OUTRO:

E|--------------------- -----------------------
B|--------------------- -----------------------
G|--------5------------ Pause --------5--------------
D|--11---------9----4-- --11---------9----4----
A|--9-----6----7----4-- --9-----6----7----4----
E|--------4------------ --------4---------0----


E|----------------------------------------------------------
B|-------------------------0--------------------0-----------
G|----------------------------5-----5-----------------------
D|--11-----------11-----------------------9--9--------4-----
A|--9---9-----9---------9-----6--------6--7--7--------4-----
E|---------0---------0--------4--4-----------------0--0-----



E|-----------
B|-----------
G|-----------
D|--4--4-----
A|--4--4-----
E|--0--0--0--

E|----------------------------------------------------------
B|-------------------------0--------------------0-----------
G|----------------------------5-----5-----------------------
D|--11-----------11-----------------------9-----------4-----
A|--9---9-----9---------9-----6--------6-----7--------4-----
E|---------0---------0--------4--4-----------------0--0-----



E|---------------------
B|---------------------
G|--------------------4
D|-------------4---4--4
A|-----4---------------
E|--0----0--------0---0
Guitar Tab Creator is intended to store guitar tab created through the tool. It currently does not support in-line text editing. Any text you place in here will be lost. If you need to comment on your tab, please use the "Tab Notes" section located below.