making of peaches

(/) Slide Up  (\) Slide Down  (h) Hammer On  (p) Pull Off  (b) Bend (r) Release (v) Vibrato
E|----------------------------------------------------------------------------------
B|-------------------0--------------------------0-----------------------------------
G|----------------0--------------------0--------------------------------------------
D|--11--------11--------11\9-----9-----------9-----9\7--7-------------7-------------
A|--9------9------------------7-----7-----7-------------5-------------5-------------
E|------0--------------------------------------------------0--0----0-----0--0-------



E|----------------
B|----------------
G|----------------
D|--7/11b12-------
A|--5-------------
E|----------------



E|-----------------------------------------------------------------------------
B|---------------------0-----------------------------0-------------------------
G|------------------0-----------------------0----------------------------------
D|--11----------11-----------11\9-----9-----------9-----7-------------7--------
A|--9--------9------------9--------7-----7-----7--------5-------------5--------
E|--------0------------------------------------------------0--0----0-----0-----



E|-----------0-----------------------------0--------------------------
B|--------------0--------------------0--------0--------------------0--
G|--------4-----------------------4-----4-----------------------4-----
D|--------4--------------------4--------4--------------------4--------
A|--------------------0-----0-----------------------0-----0-----------
E|--0--0-----------0-----0-----------------------0-----0--------------



E|--
B|--
G|--
D|--
A|--
E|--


E|--------------------------------------------------------------
B|--------------------------------------------------------------
G|--------------------------------------------------------------
D|--11--11--11----11--11--11--11--11--11--11--11----9--9--9-----
A|--9---9---9-----9---9---9---9---9---9---9---9-----7--7--7-----
E|--------------------------------------------------------------



E|---------------------------------------------------------------
B|---------------------------------------------------------------
G|---------------------------------------------------------------
D|--9--9--9--9----9--9--9--9----7--7--7--7--7--x--x--x--7--7--7--
A|--7--7--7--7----7--7--7--7----5--5--5--5--5--x--x--x--5--5--5--
E|------------------------------------------------x--x-----------



E|------------------------------------------
B|------------------------------------------
G|------------------------------------------
D|--7--7--7--7----7--7--7--7----------------
A|--5--5--5--5----5--5--5--5----------------
E|------------------------------------------
http://www.guitartabcreator.com
Guitar Tab Creator is intended to store guitar tab created through the tool. It currently does not support in-line text editing. Any text you place in here will be lost. If you need to comment on your tab, please use the "Tab Notes" section located below.