Camilla 2013 ©

(/) Slide Up  (\) Slide Down  (h) Hammer On  (p) Pull Off  (b) Bend (r) Release (v) Vibrato
E|--2h3p2-----------------------2h3p2--------------------
B|---------3--------3--5--3------------3--------3--3/5v--
G|------------2--4-----------4------------2--4-----------
D|-------------------------------------------------------
A|-------------------------------------------------------
E|-------------------------------------------------------



E|--2h3p2-----------------------2h3p2-----------------
B|---------3--------3--5--3------------3--------------
G|------------2--4-----------4------------2--2/4v-----
D|----------------------------------------------------
A|----------------------------------------------------
E|----------------------------------------------------



E|--3--3--3--0--0----------------2--2--2--0-------------------
B|--3--3--3--0--0----------------3--3--3--0-------------------
G|--0--0--0--0--0----x--x--x--x--4--4--4--0-------------x--x--
D|--0--0--0--0--2----2--2--x--x--4--4--4-----4----4--4--x--x--
A|--2--2--------2----2--2--0--0--2--2--2-----4----4--4--0--0--
E|--3--3--------0----x--x--0--0--0--0--0-----2----2--2--0--0--



E|--
B|--
G|--
D|--
A|--
E|--
http://www.guitartabcreator.com
Guitar Tab Creator is intended to store guitar tab created through the tool. It currently does not support in-line text editing. Any text you place in here will be lost. If you need to comment on your tab, please use the "Tab Notes" section located below.