Rolling E Blues Draft

(/) Slide Up  (\) Slide Down  (h) Hammer On  (p) Pull Off  (b) Bend (r) Release (v) Vibrato


E|-----|-----------------|-----------------|-----------------|--------------
B|-----|-----------------|-----------------|-----------------|--------------
G|--0--|--1-----------0--|--1-----------0--|--1-----------0--|--1-----------
D|-----|-----2-----2-----|-----2-----2-----|-----2-----2-----|-----2-----2--
A|-----|-----------------|-----------------|-----------------|--------------
E|-----|--0-----0--------|--0-----0--------|--0-----0--------|--0-----0-----



E|-----5-----------|-----5--------------|-----------------|-----------------
B|-----------------|--------------------|-----------------|-----------------
G|--2--------------|--2--------------0--|--1-----------0--|--1-----------0--
D|--------2-----2--|--------2-----2-----|-----2-----2-----|-----2-----2-----
A|--0--------------|--0-----------------|-----------------|-----------------
E|-----------0-----|-----------0--------|--0-----0--------|--0-----0--------



E|-----1-----------|-----5-----------|--------------|-----0--------2-----
B|--2--------------|--2--------------|-----2--3--2--|--0--------0--------
G|-----------------|-----------------|-----3--4--3--|--1--------2--------
D|--------1-----1--|--------2-----2--|--------------|--------2--------1--
A|--2--------------|--0--------------|--------------|-----------2--------
E|-----------2-----|-----------0-----|--0-----------|--0-----------------
http://www.guitartabcreator.com
Guitar Tab Creator is intended to store guitar tab created through the tool. It currently does not support in-line text editing. Any text you place in here will be lost. If you need to comment on your tab, please use the "Tab Notes" section located below.