Listen by Nicole Lovetinsky

(/) Slide Up  (\) Slide Down  (h) Hammer On  (p) Pull Off  (b) Bend (r) Release (v) Vibrato

Stave 1:

E|-------------------------------------------------------------
B|-------------------------------------------------------------
G|-------------------------------------------------------------
D|-------------------------------------------------------------
A|-------------------------------------------------------------
E|-0-0-3-0-0-0-3-0-0-3-0-0-0-3-4-0-0-3-0-0-0-3-0-0-3-0-0-0-5-6-

Stave 2:

E|--------------------------------------
B|--------------------------------------
G|--------------------------------------
D|---11----12---11----12---11----12---9-
A|-9----10----9----10----9----10----7---
E|--------------------------------------

Stave 3:

E|---------------------------------------------------
B|---------------------------------------------------
G|---------------------------------------------------
D|---11----12---11----12---11----12---8---9---10---9-
A|-9----10----9----10----9----10----6---7---8----7---
E|---------------------------------------------------

Stave 4:

E|-----------------------------
B|-----------------------------
G|-----------------------------
D|-----------------------------
A|---0-3---0-3-4---0-4---0-4-3-
E|-0-----0-------0-----0-------

http://www.guitartabcreator.com
Guitar Tab Creator is intended to store guitar tab created through the tool. It currently does not support in-line text editing. Any text you place in here will be lost. If you need to comment on your tab, please use the "Tab Notes" section located below.