Waking Up

(/) Slide Up  (\) Slide Down  (h) Hammer On  (p) Pull Off  (b) Bend (r) Release (v) Vibrato


E|-----0-----0-----0-----0-----
B|-----5-----0-----8-----7-----
G|-----0-----4-----9-----0-----
D|-----5-----5-----9-----7-----
A|-----3-----5-----7-----5-----
E|-----------3-----------------



E|-----0-----0-----
B|-----5-----7-----
G|-----0-----0-----
D|-----5-----7-----
A|-----3-----5-----
E|-----------------



E|-----0-----0-----0-----
B|-----5-----8-----7-----
G|-----0-----9-----0-----
D|-----5-----9-----7-----
A|-----3-----7-----5-----
E|-----------------------



E|-----3-----3-----3-----0-----
B|-----3-----3-----3-----3-----
G|-----0-----0-----0-----0-----
D|-----2-----0-----2-----4-----
A|-----3-----2-----2-----5-----
E|-----------3-----0-----5-----
http://www.guitartabcreator.com
Guitar Tab Creator is intended to store guitar tab created through the tool. It currently does not support in-line text editing. Any text you place in here will be lost. If you need to comment on your tab, please use the "Tab Notes" section located below.