#Ghostsdonttxt

(/) Slide Up  (\) Slide Down  (h) Hammer On  (p) Pull Off  (b) Bend (r) Release (v) Vibrato
Guitar 1
D|---------------------------------------------------------
A|---------------------------------------------------------
F|---------------------------------------------------------
C|---------------------------------------------------------
G|------------------------------------3-3-3-3-3-3-3-3------
C|--8--00--00-00--00--00--7--00--00------------------------

Guitar 1
D|---------------------------------------------------------
A|---------------------------------------------------9-10--
F|---------------------------------------------7-10--------
C|----------------------------------------5-8--------------
G|-----------------------------------4-7-------------------
C|--8--00--00-00--00--00--7--00--00------------------------

Guitar 2

D|---------------------------------------------------------
A|---------------------------------------------------------
F|--7--7--7--7--7--7--7--7-10-10-10-10---------------------------------------------
C|--x--x--x--x--x--x--x--x-x--x--x--x-- -------------------------------------------
G|--5--5--5--5--5--5--5--5-8--8--8--8----------------------------
C|---------------------------------------------------------

http://www.guitartabcreator.com
Guitar Tab Creator is intended to store guitar tab created through the tool. It currently does not support in-line text editing. Any text you place in here will be lost. If you need to comment on your tab, please use the "Tab Notes" section located below.