Adios, Mi Corazon

(/) Slide Up  (\) Slide Down  (h) Hammer On  (p) Pull Off  (b) Bend (r) Release (v) Vibrato

E|----------------------13------13--15----------13------13--15--
B|--11--15------12--15------13----------10--13------13----------
G|----------13--------------------------------------------------
D|--------------------------------------------------------------
A|--------------------------------------------------------------
E|--------------------------------------------------------------



E|----------12----------13----------13----------14----------14--
B|--10--13------11--14------11--14------12--15------12--15------
G|--------------------------------------------------------------
D|--------------------------------------------------------------
A|--------------------------------------------------------------
E|--------------------------------------------------------------



E|----------13----------13----------11------11--14--
B|--12--13------11--14----------12------11----------
G|--------------------------13----------------------
D|--------------------------------------------------
A|--------------------------------------------------
E|--------------------------------------------------



E|--11------11----------11----------11----------12----------14--
B|------11----------12----------12----------14------12--15------
G|--------------13----------13----------13----------------------
D|--------------------------------------------------------------
A|--------------------------------------------------------------
E|--------------------------------------------------------------
http://www.guitartabcreator.com
Guitar Tab Creator is intended to store guitar tab created through the tool. It currently does not support in-line text editing. Any text you place in here will be lost. If you need to comment on your tab, please use the "Tab Notes" section located below.