Nær Deg Gud Tab

(/) Slide Up  (\) Slide Down  (h) Hammer On  (p) Pull Off  (b) Bend (r) Release (v) Vibrato

E|--------------------------------------|------------------------------------------|-----
B|--5--5--5--3--------------------------|--5--5--5--3-----8--8--7--8--8--7--8--10--|-----
G|--------------4-----2--4--2--4--2-----|--------------4---------------------------|-----
D|-----------------5-----------------5--|------------------------------------------|-----
A|--------------------------------------|------------------------------------------|-----
E|--------------------------------------|------------------------------------------|-----



E|------------------10------|--15--15--14--15--15--14--15--17--|--15--15--15--12----------
B|--12--12--12--10------12--|----------------------------------|------------------15--10--
G|--------------------------|----------------------------------|--------------------------
D|--------------------------|----------------------------------|--------------------------
A|--------------------------|----------------------------------|--------------------------
E|--------------------------|----------------------------------|--------------------------
http://www.guitartabcreator.com
Guitar Tab Creator is intended to store guitar tab created through the tool. It currently does not support in-line text editing. Any text you place in here will be lost. If you need to comment on your tab, please use the "Tab Notes" section located below.