Elskede Jesus Tab

(/) Slide Up  (\) Slide Down  (h) Hammer On  (p) Pull Off  (b) Bend (r) Release (v) Vibrato

E|-----8-----8-----8-----|--5--7--5--7--5--------|-----10-----10-----8-----|--5--7--5--7--5--------
B|--8-----8-----8-----8--|-----------------5--8--|--8------8------8-----8--|-----------------5--8--
G|-----------------------|-----------------------|-------------------------|-----------------------
D|-----------------------|-----------------------|-------------------------|-----------------------
A|-----------------------|-----------------------|-------------------------|-----------------------
E|-----------------------|-----------------------|-------------------------|-----------------------



E|------------------------------------------------------------------|--
B|--13--13--13--13--15--15--15--15--17--17--17--17--17--17--17--17--|--
G|------------------------------------------------------------------|--
D|------------------------------------------------------------------|--
A|------------------------------------------------------------------|--
E|------------------------------------------------------------------|--



E|----------------------------------------|--
B|--13--13--13--13--15--15--15--17\17\17--|--
G|----------------------------------------|--
D|----------------------------------------|--
A|----------------------------------------|--
E|----------------------------------------|--



E|----------------------20--20--20--19--19--19--19--17--17--17--17--15--------------
B|--13--13--13--13--13--------------------------------------------------15----------
G|--------------------------------------------------------------------------14------
D|------------------------------------------------------------------------------12--
A|----------------------------------------------------------------------------------
E|----------------------------------------------------------------------------------
http://www.guitartabcreator.com
Guitar Tab Creator is intended to store guitar tab created through the tool. It currently does not support in-line text editing. Any text you place in here will be lost. If you need to comment on your tab, please use the "Tab Notes" section located below.