This Guy's in Love - key of C#

(/) Slide Up  (\) Slide Down  (h) Hammer On  (p) Pull Off  (b) Bend (r) Release (v) Vibrato

E|--------------------------------------------------------------------------------
B|--------------------------------------------------------------------------------
G|---------------------------------------------------------------------------6----
D|---------------------8--------------------------------------------7--7--8-------
A|--8--8----8--8----8---------------------8--8----8--8----8--8--10----------------
E|------------------------9--9--11--11--------------------------------------------



E|---------------------------------------------------------------------------------------------------
B|---------------------------------------------------------------------------------------------------
G|--4--4--6----4--8--6----4--6--8--10--8-------------------------------------------------------------
D|--------------------------------------------------------6-------8----------6-------8---------------
A|----------------------------------------6--8--8------6-------8-----6----6-------8------------------
E|--------------------------------------------------------------------------------------9--9--9--11--



E|---------------------------------------------------------------------------------------
B|---------------------------------------------------------------------------------------
G|--------------------10--11--------------------------------10--11-----------------------
D|----------------------------11--8---------------------------------11--8----------------
A|--8--8----8--8---------------------9----8--8----8--8---------------------9----8--8-----
E|---------------------------------------------------------------------------------------



E|---------------------------------------------
B|---------------------------------------------
G|---------------------------------------------
D|--5--6----5--3--8----------------------------
A|-------------------10--6------6--8--6--4--4--
E|---------------------------------------------
http://www.guitartabcreator.com
Guitar Tab Creator is intended to store guitar tab created through the tool. It currently does not support in-line text editing. Any text you place in here will be lost. If you need to comment on your tab, please use the "Tab Notes" section located below.