bury_me

(/) Slide Up  (\) Slide Down  (h) Hammer On  (p) Pull Off  (b) Bend (r) Release (v) Vibrato
E|---------------------------------------------------------
B|---------------------------------------------------------
G|---------------------------------------------------------
D|---------------------------------------------------------
A|--------11-----11--12--------12--------11----------------
E|--9--9------9----------9--9------9--9------9--9--11--12--



E|-------------------------------------------------------------------
B|-------------------------------------------------------------------
G|-------------------------------------------------------------------
D|-------------------------------------------------------------------
A|--------11-----11--12--------12--------11--------------------------
E|--9--9------9----------9--9------9--9------9--11--12\14/12--11\12--



E|------------------------------------------
B|------------------------------------------
G|------------------------------------------
D|------------------------------------------
A|--11--11--11--9--9----12--12--12--11--11--
E|--9---9---9---9--9----9---9---9---9---9---



E|----------------------------------------------
B|----------------------------------------------
G|----------------------------------------------
D|----------------------------------------------
A|--9h11--11--11--9--9----9h12--12--12--11--11--
E|--9-----9---9---9--9----9-----9---9---9---9---



E|-----------------------------------------------------------
B|-----------------------------------------------------------
G|-----------------------------------------------------------
D|-----------------------------------------------------------
A|-----------------------------------------------------------
E|--9--9--11--12--11--12--14--12--11--9--7/5--2\3/2--2--3----



E|------------------------------------------------------------------
B|------------------------------------------------------------------
G|------------------------------------------------------------------
D|--------------------------------------------------------7\10--10--
A|--------------------------------------5--2--3--2--0--2------------
E|--5\7/5--3------2------0--0h2--2h3--------------------------------



E|--
B|--
G|--
D|--
A|--
E|--
http://www.guitartabcreator.com
Guitar Tab Creator is intended to store guitar tab created through the tool. It currently does not support in-line text editing. Any text you place in here will be lost. If you need to comment on your tab, please use the "Tab Notes" section located below.