Lauren's Song

(/) Slide Up  (\) Slide Down  (h) Hammer On  (p) Pull Off  (b) Bend (r) Release (v) Vibrato


E|--------------------------------------------------------------------------------------
B|--------------------------------------------------------------------------------------
G|--10b11r10--10b11r10--8-------------8--------10b11r10--10b11r10--8-------------8------
D|-------------------------10--8--10-----10---------------------------10--8--10-----10--
A|--------------------------------------------------------------------------------------
E|--------------------------------------------------------------------------------------



E|------------------------------------------------------------------------------------
B|------------------------------------------------------------------------------------
G|--10b11r10--10b11r10--8-------------8--------10--8----------------------------------
D|-------------------------10--8--10-----10-----------10--8---------------------------
A|-----------------------------------------------------------10--8--------------------
E|------------------------------------------------------------------11--8--3--6/8--8--



E|--------------------------------------------------------------------------------------8--8--
B|-----------------------------------------------------------------8------8--11--8--11--------
G|--------------------------------------------8------8--10--8--10-----10----------------------
D|-----------------------8------8--10--8--10-----10-------------------------------------------
A|---------8--10--8--10-----10----------------------------------------------------------------
E|--8--11-------------------------------------------------------------------------------------



E|--8--8--8------11--8--8--11--8--8--11--8--8--11--8--8--11/13--11--8--8--8--
B|---------------------------------------------------------------------------
G|---------------------------------------------------------------------------
D|---------------------------------------------------------------------------
A|---------------------------------------------------------------------------
E|---------------------------------------------------------------------------



E|--11--8------------------------------------------------------------------------
B|---------11--8-----------------------------------------------------------------
G|----------------10--8----------------------------------------------------------
D|-----------------------10--8---------------------------------------------------
A|------------------------------10--8--------------------------------------------
E|-------------------------------------11--8--6/8--8----8--8--3/6--8--8--6/8--8--
http://www.guitartabcreator.com
Guitar Tab Creator is intended to store guitar tab created through the tool. It currently does not support in-line text editing. Any text you place in here will be lost. If you need to comment on your tab, please use the "Tab Notes" section located below.