Oppvarming

(/) Slide Up  (\) Slide Down  (h) Hammer On  (p) Pull Off  (b) Bend (r) Release (v) Vibrato


E|--------------------------------------------------------------------------------------------------
B|--------------------------------------------------------------------------------------------------
G|--------------------------------------------------------------------------------------------------
D|--------------------------------------------------------------------------------------------------
A|--------------1--2--3--4--4--3--2--1--------------------------4--3--2--1--1--2--3--4--------------
E|--1--2--3--4--------------------------4--3--2--1--4--3--2--1--------------------------1--2--3--4--



E|--------------------------------------------------------------------------------------------------
B|--------------------------------------------------------------------------------------------------
G|--------------------------------------------------------------------------------------------------
D|--------------------------------------------------------------------------------------------------
A|--------1--4--4--1--------------4--1--1--4--------------1--3--3--1--------------2--4--4--2--------
E|--1--4--------------4--1--4--1--------------1--4--1--3--------------3--1--2--4--------------4--2--



E|--------------------------------------------------------------------------------------------------
B|--------------------------------------------------------------------------------------------------
G|--------------------------------------------------------------------------------------------------
D|--------------------------------------------------------------------------------------------------
A|--------4--2--2--4--------------1--2--2--1--------------2--1--1--2--------------2--3--3--2--------
E|--4--2--------------2--4--1--2--------------2--1--2--1--------------1--2--2--3--------------3--2--



E|--------------------------------------------------------------------------
B|--------------------------------------------------------------------------
G|--------------------------------------------------------------------------
D|--------------------------------------------------------------------------
A|--------3--2--2--3--------------3--4--4--3--------------4--3--3--4--------
E|--3--2--------------2--3--3--4--------------4--3--4--3--------------3--4--



E|-----------------------------------------------------------1--4-----------
B|-----------------------------------1--4-----------------2--------3--------
G|-----------1--4-----------------2--------3-----------3--------------2-----
D|--------2--------3-----------3--------------2-----4--------------------1--
A|-----3--------------2-----4--------------------1--------------------------
E|--4--------------------1--------------------------------------------------
http://www.guitartabcreator.com
Guitar Tab Creator is intended to store guitar tab created through the tool. It currently does not support in-line text editing. Any text you place in here will be lost. If you need to comment on your tab, please use the "Tab Notes" section located below.