WW1

(/) Slide Up  (\) Slide Down  (h) Hammer On  (p) Pull Off  (b) Bend (r) Release (v) Vibrato
E|--------2--------2--------2/4--------4/5--------5-----
B|-----2--------2--------2----------2----------2-----2--
G|--2--------2--------2----------2----------2-----------
D|------------------------------------------------------
A|------------------------------------------------------
E|------------------------------------------------------



E|--------2--------2--------2/4--------4/5--------5-----
B|-----2--------2--------2----------2----------2-----2--
G|--2--------2--------2----------2----------2-----------
D|------------------------------------------------------
A|------------------------------------------------------
E|------------------------------------------------------



E|--------4--------4--------4/5--------4--------4-----
B|-----2--------2--------2----------2--------2-----2--
G|--4--------4--------4----------4--------4-----------
D|----------------------------------------------------
A|----------------------------------------------------
E|----------------------------------------------------



E|--------4--------4--------4/5--------5--------5-----
B|-----2--------2--------2----------2--------2-----2--
G|--4--------4--------4----------4--------4-----------
D|----------------------------------------------------
A|----------------------------------------------------
E|----------------------------------------------------



E|--------0--------0--------0/2--------0--------0-----
B|----------------------------------------------------
G|-----2--------2--------2----------2--------2-----2--
D|--0--------0--------0----------0--------0-----------
A|----------------------------------------------------
E|----------------------------------------------------



E|--------0--------0--------0/2--------2--------2-----
B|----------------------------------------------------
G|-----2--------2--------2----------2--------2-----2--
D|--0--------0--------0----------0--------0-----------
A|----------------------------------------------------
E|----------------------------------------------------



E|--------4--------4--------4/5--------4--------4-----
B|-----2--------2--------2----------2--------2-----2--
G|--4--------4--------4----------4--------4-----------
D|----------------------------------------------------
A|----------------------------------------------------
E|----------------------------------------------------



E|--------4--------4--------4/5--------5--------5-----
B|-----2--------2--------2----------2--------2-----2--
G|--4--------4--------4----------4--------4-----------
D|----------------------------------------------------
A|----------------------------------------------------
E|----------------------------------------------------
http://www.guitartabcreator.com
Guitar Tab Creator is intended to store guitar tab created through the tool. It currently does not support in-line text editing. Any text you place in here will be lost. If you need to comment on your tab, please use the "Tab Notes" section located below.