Metalcorre riff idea

(/) Slide Up  (\) Slide Down  (h) Hammer On  (p) Pull Off  (b) Bend (r) Release (v) Vibrato




D|-----------------|-----------------|-----------------|-----------------|
A|-----------------|-----------------|-----------------|-----------------|
F|-----------------|-----------------|-----------------|-----------------|
C|-----------------|---------9-9-9-9-|-----------------|-----------------|
G|---3-5-----3-----|---5-7-0-7-7-8-8-|-8-7-0-7-5-0-5-3-|-2---------------|
C|-0-----0-0---0-0-|-7---------------|-----------------|---0-0-0-5-0-3-5-|


<-------------->

hook 1



D|-----------------|-----------------|-----------------|-----------------|
A|-----------------|-----------------|-----------------|-----------------|
F|-----------------|-----------------|-----------------|-----------------|
C|-----------------|-----------------|---------5-3-----|-----------------|
G|-0~~~~---8-7-5---|---8-7---3-5-----|-0~~~~---5-3-----|-----------------|
C|-0~~~~-0-------0-|-0-----0-----0000|-0~~~~-0-----0-7-|-5-0-5-3-2-0-0-2-|




D|-----------------|-----------------|--------------------|-----------------|
A|-----------------|-----------------|--------------------|-----------------|
F|-----------------|-----------------|--------------------|-----------------|
C|-----------------|---------9-9-9-9-|--------------------|-----------------|
G|---7-8-----7-----|---5-7-0-7-7-8-8-|-12-10-0-10-8-0-8-7-|-5---------------|
C|-0-----0-0---0-0-|-7---------------|--------------------|---0-0-0-5-0-3-5-|


<-------------->

hook 2


verse 1




D|-----------------|-----------------|-----------------|------------------|
A|-----------------|-----------------|-----------------|------------------|
F|-----------------|-----------------|-----------------|------------------|
C|-5~~~~---5-3-5~~~|~~-------5-3-----|-5~~~~---5-3-5~~~|~~-----------5-8h7|
G|-5~~~~---5-3-5~~~|~~-------5-3-----|-5~~~~---5-3-5~~~|~~-------5-8------| play 2 times
C|-------00--------|---000-00----5-3-|-------00--------|---000-00---------|
PM




ending verse bridge to chorus part 2


D|-----------------|---------------------|-----------------|-------------------|
A|-----------------|---------------------|-----------------|-------------------|
F|---------7~~-----|-10-10-10-10-9-9-9-9-|---------7~~-----|-9-9-9-9-10-10-7-7-|
C|---------6~~-----|-8--8--8--8--7-7-7-7-|---------6~~-----|-------------------|
G|-0-------5~~-----|-8--8--8--8--7-7-7-7-|-0-------5~~-----|-7-7-7-7-8--8--5-5-|
C|-0-0-0-0-----0-0-|---------------------|-0-0-0-0-----0-0-|-------------------|


D|-----------------|-----------------|-----------------|-----------------|
A|-----------------|-----------------|-----------------|-----------------|
F|-----------------|-----------------|-----------------|-----------------|
C|---------8~~-----|---------8~~-----|---------6~~-----|---------5~~-----|
G|-5-------7~~-----|-5-------7~~-----|-3-------5~~-----|-2-------4~~-----|
C|-5-5-5-5-5---5-5-|-5-5-5-5-5---5-5-|-3-3-3-3-3---3-3-|-2-2-2-2-2---2-2-|


Guitar Tab Creator is intended to store guitar tab created through the tool. It currently does not support in-line text editing. Any text you place in here will be lost. If you need to comment on your tab, please use the "Tab Notes" section located below.