"Pictures"

(/) Slide Up  (\) Slide Down  (h) Hammer On  (p) Pull Off  (b) Bend (r) Release (v) Vibrato


(/) Slide Up (\) Slide Down (h) Hammer On (p) Pull Off (b) Bend (r) Release (v) Vibrato

"Pictures" by Forever Once Told

intro LEAD

D|----------------|
A|----------------|
F|----------------|
C|--000~-00--00---|
G|--000~-00--00---|
C|--000~-00--00-5*|
.. .. ..
rhythm

D|---------------|
A|-------------5~|
F|-------------8~|
C|---------------|
G|---------------|
C|---------------|

Lead

D|-----| D|-----------------------------------------------------------------|
A|-----| A|-----------------------------------------------------------------|
F|-----| verse F|-----------------------------------------------------------------|
C|-0~--|transition C|-----------------------------------------------------------------|
G|-0~--| G|--8-7-5-7-5-3-1~-----8-7-5-10-8-7h8p7h8p7h8p7~----8-7-5-7-5-3-1--|
C|-0~--| C|00-0-0-0-0-0-0-----00-0-0-0--0-0----------------00-0-0-0-0-0-0---|
.. . . . . . . .. . . . . . .. . . . . . .
RHYTHYM

D|-----| D|------------------------------------------------------------------|
A|-----| A|------------------------------------------------------------------|
F|-----| VERSE F|------------------------------------------------------------------|
C|-0~--|TRANSITION C|------------------------------------------------------------------|
G|-0~--| G|00--00--00--0~--00--00--00--8~---------------00--00--00--0~-------|
C|-0~--| C|00--00--00--1~--00--00--00--8~---------------00--00--00--1~-------|
.. .. .. . .. .. .. .. .. .. .
LEAD

D|--------------------------| SUDDEN D|-----------------------|
A|--------------------------| TRANSITION A|-----------------------|
F|--------------------------| INTO F|-----------------------|
C|--------------------------| A C|-----------------------|
G|--8-7-5-10/slide down-----| BREAKDOWN G|-2222-0000-2222-0------| X4
C|00-0-0-0------------------| C|-1111-0000-1111-0-5*---|
.. . . . .... .... .... .
RHYTHYM

D|--------------------------| SUDDEN D|-----------------------|
A|--------------------------| TRANSITION A|-----------------------|
F|--------------------------| INTO F|-----------------------|
C|--------------------------| A C|------------------8~---|
G|00--00--10/slide down-----| BREAKDOWN G|------------------5~---| X4
C|00--00--10/slide down-----| C|-----------------------|
.. ..

LEAD PRECHORUS
D|-------------------|
A|-------------------|
F|-------------------|
C|-------------------|
G|--8-7h8----8-8h10~-|
C|00-0-----00-0------|
.. . .. .

BOTH CHORUS

D|----------------------------------------------------------------------------|
A|----------------------------------------------------------------------------|
F|----------------------------------------------------------------------------|
C|----------------------------------------------------------------------------|
G|88888-------88--88-00000--55--55--88888--------88--88--00000000-55555555----|
C|88888-------88--88-00000--55--55--88888--------88--88--00000000-55555555----|

LEAD CHORUS

D|----------------------------------------------------------------------------|
A|10----10----10----10------9----9----9----9--------10----10----10----10------|
F|--989---989---989---989----878--878--878--878-------989---989---989---989---|
C|----------------------------------------------------------------------------|
G|----------------------------------------------------------------------------|
C|----------------------------------------------------------------------------|

D|---------------------------------------|
A|12-------12-------12-------12----------|
F|--111011---111011----111011----111011--|
C|---------------------------------------|
G|---------------------------------------|
C|---------------------------------------|

RHYTHYM

D|------------------------------------------------------------------| D|--------|
A|------------------------------------------------------------------| A|--------|
F|------------------------------------------------------------------| BOTH F|--------|
C|8-----------5-------------8--------------10--------------12-------| C|-0~~----|
G|8--X16------5--X16--------8--X16---------10--X8----------12--X8---| G|-0~~----|
C|8-----------5-------------8--------------10--------------12-------| C|-0~~----|
http://www.guitartabcreator.com
http://www.guitartabcreator.com
Guitar Tab Creator is intended to store guitar tab created through the tool. It currently does not support in-line text editing. Any text you place in here will be lost. If you need to comment on your tab, please use the "Tab Notes" section located below.